  0
SECTION
  2
HEADER
  9
$ACADVER
  1
AC1021
  9
$ACADMAINTVER
 70
    25
  9
$DWGCODEPAGE
  3
ANSI_1251
  9
$INSBASE
 10
0.0
 20
0.0
 30
0.0
  9
$EXTMIN
 10
-302.9126
 20
-446.2553
 30
0.0
  9
$EXTMAX
 10
397.2672
 20
-46.0753
 30
0.0
  9
$LIMMIN
 10
0.0
 20
0.0
  9
$LIMMAX
 10
12.0
 20
9.0
  9
$ORTHOMODE
 70
     0
  9
$REGENMODE
 70
     1
  9
$FILLMODE
 70
     1
  9
$QTEXTMODE
 70
     0
  9
$MIRRTEXT
 70
     1
  9
$LTSCALE
 40
1.0
  9
$ATTMODE
 70
     1
  9
$TEXTSIZE
 40
0.2
  9
$TRACEWID
 40
0.05
  9
$TEXTSTYLE
  7
Standard
  9
$CLAYER
  8
0
  9
$CELTYPE
  6
ByLayer
  9
$CECOLOR
 62
   256
  9
$CELTSCALE
 40
1.0
  9
$DISPSILH
 70
     0
  9
$DIMSCALE
 40
1.0
  9
$DIMASZ
 40
0.18
  9
$DIMEXO
 40
0.0625
  9
$DIMDLI
 40
0.38
  9
$DIMRND
 40
0.0
  9
$DIMDLE
 40
0.0
  9
$DIMEXE
 40
0.18
  9
$DIMTP
 40
0.0
  9
$DIMTM
 40
0.0
  9
$DIMTXT
 40
0.18
  9
$DIMCEN
 40
0.09
  9
$DIMTSZ
 40
0.0
  9
$DIMTOL
 70
     0
  9
$DIMLIM
 70
     0
  9
$DIMTIH
 70
     1
  9
$DIMTOH
 70
     1
  9
$DIMSE1
 70
     0
  9
$DIMSE2
 70
     0
  9
$DIMTAD
 70
     0
  9
$DIMZIN
 70
     0
  9
$DIMBLK
  1

  9
$DIMASO
 70
     1
  9
$DIMSHO
 70
     1
  9
$DIMPOST
  1

  9
$DIMAPOST
  1

  9
$DIMALT
 70
     0
  9
$DIMALTD
 70
     2
  9
$DIMALTF
 40
25.4
  9
$DIMLFAC
 40
1.0
  9
$DIMTOFL
 70
     0
  9
$DIMTVP
 40
0.0
  9
$DIMTIX
 70
     0
  9
$DIMSOXD
 70
     0
  9
$DIMSAH
 70
     0
  9
$DIMBLK1
  1

  9
$DIMBLK2
  1

  9
$DIMSTYLE
  2
Standard
  9
$DIMCLRD
 70
     0
  9
$DIMCLRE
 70
     0
  9
$DIMCLRT
 70
     0
  9
$DIMTFAC
 40
1.0
  9
$DIMGAP
 40
0.09
  9
$DIMJUST
 70
     0
  9
$DIMSD1
 70
     0
  9
$DIMSD2
 70
     0
  9
$DIMTOLJ
 70
     1
  9
$DIMTZIN
 70
     0
  9
$DIMALTZ
 70
     0
  9
$DIMALTTZ
 70
     0
  9
$DIMUPT
 70
     0
  9
$DIMDEC
 70
     4
  9
$DIMTDEC
 70
     4
  9
$DIMALTU
 70
     2
  9
$DIMALTTD
 70
     2
  9
$DIMTXSTY
  7
Standard
  9
$DIMAUNIT
 70
     0
  9
$DIMADEC
 70
     0
  9
$DIMALTRND
 40
0.0
  9
$DIMAZIN
 70
     0
  9
$DIMDSEP
 70
    46
  9
$DIMATFIT
 70
     3
  9
$DIMFRAC
 70
     0
  9
$DIMLDRBLK
  1

  9
$DIMLUNIT
 70
     2
  9
$DIMLWD
 70
    -2
  9
$DIMLWE
 70
    -2
  9
$DIMTMOVE
 70
     0
  9
$DIMFXL
 40
1.0
  9
$DIMFXLON
 70
     0
  9
$DIMJOGANG
 40
0.7853981633974483
  9
$DIMTFILL
 70
     0
  9
$DIMTFILLCLR
 70
     0
  9
$DIMARCSYM
 70
     0
  9
$DIMLTYPE
  6

  9
$DIMLTEX1
  6

  9
$DIMLTEX2
  6

  9
$LUNITS
 70
     2
  9
$LUPREC
 70
     4
  9
$SKETCHINC
 40
0.1
  9
$FILLETRAD
 40
0.5
  9
$AUNITS
 70
     0
  9
$AUPREC
 70
     0
  9
$MENU
  1
.
  9
$ELEVATION
 40
0.0
  9
$PELEVATION
 40
0.0
  9
$THICKNESS
 40
0.0
  9
$LIMCHECK
 70
     0
  9
$CHAMFERA
 40
0.5
  9
$CHAMFERB
 40
0.5
  9
$CHAMFERC
 40
1.0
  9
$CHAMFERD
 40
0.0
  9
$SKPOLY
 70
     0
  9
$TDCREATE
 40
2456427.732421331
  9
$TDUCREATE
 40
2456427.607421331
  9
$TDUPDATE
 40
2456427.732421343
  9
$TDUUPDATE
 40
2456427.607421343
  9
$TDINDWG
 40
0.0000000116
  9
$TDUSRTIMER
 40
0.0000000116
  9
$USRTIMER
 70
     1
  9
$ANGBASE
 50
0.0
  9
$ANGDIR
 70
     0
  9
$PDMODE
 70
     0
  9
$PDSIZE
 40
0.0
  9
$PLINEWID
 40
0.0
  9
$SPLFRAME
 70
     0
  9
$SPLINETYPE
 70
     6
  9
$SPLINESEGS
 70
     8
  9
$HANDSEED
  5
88
  9
$SURFTAB1
 70
     6
  9
$SURFTAB2
 70
     6
  9
$SURFTYPE
 70
     6
  9
$SURFU
 70
     6
  9
$SURFV
 70
     6
  9
$UCSBASE
  2

  9
$UCSNAME
  2

  9
$UCSORG
 10
0.0
 20
0.0
 30
0.0
  9
$UCSXDIR
 10
1.0
 20
0.0
 30
0.0
  9
$UCSYDIR
 10
0.0
 20
1.0
 30
0.0
  9
$UCSORTHOREF
  2

  9
$UCSORTHOVIEW
 70
     0
  9
$UCSORGTOP
 10
0.0
 20
0.0
 30
0.0
  9
$UCSORGBOTTOM
 10
0.0
 20
0.0
 30
0.0
  9
$UCSORGLEFT
 10
0.0
 20
0.0
 30
0.0
  9
$UCSORGRIGHT
 10
0.0
 20
0.0
 30
0.0
  9
$UCSORGFRONT
 10
0.0
 20
0.0
 30
0.0
  9
$UCSORGBACK
 10
0.0
 20
0.0
 30
0.0
  9
$PUCSBASE
  2

  9
$PUCSNAME
  2

  9
$PUCSORG
 10
0.0
 20
0.0
 30
0.0
  9
$PUCSXDIR
 10
1.0
 20
0.0
 30
0.0
  9
$PUCSYDIR
 10
0.0
 20
1.0
 30
0.0
  9
$PUCSORTHOREF
  2

  9
$PUCSORTHOVIEW
 70
     0
  9
$PUCSORGTOP
 10
0.0
 20
0.0
 30
0.0
  9
$PUCSORGBOTTOM
 10
0.0
 20
0.0
 30
0.0
  9
$PUCSORGLEFT
 10
0.0
 20
0.0
 30
0.0
  9
$PUCSORGRIGHT
 10
0.0
 20
0.0
 30
0.0
  9
$PUCSORGFRONT
 10
0.0
 20
0.0
 30
0.0
  9
$PUCSORGBACK
 10
0.0
 20
0.0
 30
0.0
  9
$USERI1
 70
     0
  9
$USERI2
 70
     0
  9
$USERI3
 70
     0
  9
$USERI4
 70
     0
  9
$USERI5
 70
     0
  9
$USERR1
 40
0.0
  9
$USERR2
 40
0.0
  9
$USERR3
 40
0.0
  9
$USERR4
 40
0.0
  9
$USERR5
 40
0.0
  9
$WORLDVIEW
 70
     1
  9
$SHADEDGE
 70
     3
  9
$SHADEDIF
 70
    70
  9
$TILEMODE
 70
     1
  9
$MAXACTVP
 70
    64
  9
$PINSBASE
 10
0.0
 20
0.0
 30
0.0
  9
$PLIMCHECK
 70
     0
  9
$PEXTMIN
 10
1.000000000000000E+20
 20
1.000000000000000E+20
 30
1.000000000000000E+20
  9
$PEXTMAX
 10
-1.000000000000000E+20
 20
-1.000000000000000E+20
 30
-1.000000000000000E+20
  9
$PLIMMIN
 10
0.0
 20
0.0
  9
$PLIMMAX
 10
12.0
 20
9.0
  9
$UNITMODE
 70
     0
  9
$VISRETAIN
 70
     1
  9
$PLINEGEN
 70
     0
  9
$PSLTSCALE
 70
     1
  9
$TREEDEPTH
 70
  3020
  9
$CMLSTYLE
  2
Standard
  9
$CMLJUST
 70
     0
  9
$CMLSCALE
 40
1.0
  9
$PROXYGRAPHICS
 70
     1
  9
$MEASUREMENT
 70
     0
  9
$CELWEIGHT
370
    -1
  9
$ENDCAPS
280
     0
  9
$JOINSTYLE
280
     0
  9
$LWDISPLAY
290
     0
  9
$INSUNITS
 70
     4
  9
$HYPERLINKBASE
  1

  9
$STYLESHEET
  1

  9
$XEDIT
290
     1
  9
$CEPSNTYPE
380
     0
  9
$PSTYLEMODE
290
     1
  9
$FINGERPRINTGUID
  2
{6AC23953-44AF-45D3-8FB3-E72A22FC9892}
  9
$VERSIONGUID
  2
{FAEB1C32-E019-11D5-929B-00C0DF256EC4}
  9
$EXTNAMES
290
     1
  9
$PSVPSCALE
 40
0.0
  9
$OLESTARTUP
290
     0
  9
$SORTENTS
280
   127
  9
$INDEXCTL
280
     0
  9
$HIDETEXT
280
     1
  9
$XCLIPFRAME
290
     0
  9
$HALOGAP
280
     0
  9
$OBSCOLOR
 70
   257
  9
$OBSLTYPE
280
     0
  9
$INTERSECTIONDISPLAY
280
     0
  9
$INTERSECTIONCOLOR
 70
   257
  9
$DIMASSOC
280
     2
  9
$PROJECTNAME
  1

  9
$CAMERADISPLAY
290
     0
  9
$LENSLENGTH
 40
50.0
  9
$CAMERAHEIGHT
 40
0.0
  9
$STEPSPERSEC
 40
2.0
  9
$STEPSIZE
 40
6.0
  9
$3DDWFPREC
 40
2.0
  9
$PSOLWIDTH
 40
0.25
  9
$PSOLHEIGHT
 40
4.0
  9
$LOFTANG1
 40
1.570796326794897
  9
$LOFTANG2
 40
1.570796326794897
  9
$LOFTMAG1
 40
0.0
  9
$LOFTMAG2
 40
0.0
  9
$LOFTPARAM
 70
     7
  9
$LOFTNORMALS
280
     1
  9
$LATITUDE
 40
37.795
  9
$LONGITUDE
 40
-122.394
  9
$NORTHDIRECTION
 40
0.0
  9
$TIMEZONE
 70
 -8000
  9
$LIGHTGLYPHDISPLAY
280
     1
  9
$TILEMODELIGHTSYNCH
280
     1
  9
$SOLIDHIST
280
     1
  9
$SHOWHIST
280
     1
  9
$DWFFRAME
280
     2
  9
$DGNFRAME
280
     2
  9
$REALWORLDSCALE
290
     1
  9
$INTERFERECOLOR
 62
   256
  9
$CSHADOW
280
     0
  9
$SHADOWPLANELOCATION
 40
0.0
  0
ENDSEC
  0
SECTION
  2
CLASSES
  0
CLASS
  1
ACDBDICTIONARYWDFLT
  2
AcDbDictionaryWithDefault
  3
ObjectDBX Classes
 90
        0
 91
        4
280
     0
281
     0
  0
CLASS
  1
VISUALSTYLE
  2
AcDbVisualStyle
  3
ObjectDBX Classes
 90
     4095
 91
        4
280
     0
281
     0
  0
CLASS
  1
MATERIAL
  2
AcDbMaterial
  3
ObjectDBX Classes
 90
     1153
 91
        4
280
     0
281
     0
  0
ENDSEC
  0
SECTION
  2
TABLES
  0
TABLE
  2
VPORT
  5
8
330
0
100
AcDbSymbolTable
 70
     1
  0
VPORT
  5
29
330
8
100
AcDbSymbolTableRecord
100
AcDbViewportTableRecord
  2
*Active
 70
     0
 10
0.0
 20
0.0
 11
1.0
 21
1.0
 12
10.42990654205607
 22
4.5
 13
0.0
 23
0.0
 14
0.5
 24
0.5
 15
0.5
 25
0.5
 16
0.0
 26
0.0
 36
1.0
 17
0.0
 27
0.0
 37
0.0
 40
9.0
 41
1.972972972850329
 42
50.0
 43
0.0
 44
0.0
 50
0.0
 51
0.0
 71
     0
 72
   100
 73
     1
 74
     3
 75
     0
 76
     0
 77
     0
 78
     0
281
     0
 65
     1
110
0.0
120
0.0
130
0.0
111
1.0
121
0.0
131
0.0
112
0.0
122
1.0
132
0.0
 79
     0
146
0.0
 60
     3
 61
     5
292
     1
282
     1
141
0.0
142
0.0
 63
   250
  0
ENDTAB
  0
TABLE
  2
LTYPE
  5
5
330
0
100
AcDbSymbolTable
 70
     1
  0
LTYPE
  5
14
330
5
100
AcDbSymbolTableRecord
100
AcDbLinetypeTableRecord
  2
ByBlock
 70
     0
  3

 72
    65
 73
     0
 40
0.0
  0
LTYPE
  5
15
330
5
100
AcDbSymbolTableRecord
100
AcDbLinetypeTableRecord
  2
ByLayer
 70
     0
  3

 72
    65
 73
     0
 40
0.0
  0
LTYPE
  5
16
330
5
100
AcDbSymbolTableRecord
100
AcDbLinetypeTableRecord
  2
Continuous
 70
     0
  3
Solid line
 72
    65
 73
     0
 40
0.0
  0
ENDTAB
  0
TABLE
  2
LAYER
  5
2
330
0
100
AcDbSymbolTable
 70
     2
  0
LAYER
  5
10
330
2
100
AcDbSymbolTableRecord
100
AcDbLayerTableRecord
  2
0
 70
     0
 62
     7
  6
Continuous
370
    -3
390
F
347
3E
  0
LAYER
  5
40
330
2
100
AcDbSymbolTableRecord
100
AcDbLayerTableRecord
  2
Layer 1
 70
     0
 62
     7
  6
Continuous
370
    -3
390
F
347
3E
  0
ENDTAB
  0
TABLE
  2
STYLE
  5
3
330
0
100
AcDbSymbolTable
 70
     1
  0
STYLE
  5
11
330
3
100
AcDbSymbolTableRecord
100
AcDbTextStyleTableRecord
  2
Standard
 70
     0
 40
0.0
 41
1.0
 50
0.0
 71
     0
 42
0.2
  3
txt
  4

  0
ENDTAB
  0
TABLE
  2
VIEW
  5
6
330
0
100
AcDbSymbolTable
 70
     0
  0
ENDTAB
  0
TABLE
  2
UCS
  5
7
330
0
100
AcDbSymbolTable
 70
     0
  0
ENDTAB
  0
TABLE
  2
APPID
  5
9
330
0
100
AcDbSymbolTable
 70
     2
  0
APPID
  5
12
330
9
100
AcDbSymbolTableRecord
100
AcDbRegAppTableRecord
  2
ACAD
 70
     0
  0
APPID
  5
3F
330
9
100
AcDbSymbolTableRecord
100
AcDbRegAppTableRecord
  2
ODA
 70
     0
  0
ENDTAB
  0
TABLE
  2
DIMSTYLE
  5
A
330
0
100
AcDbSymbolTable
 70
     1
100
AcDbDimStyleTable
  0
DIMSTYLE
105
27
330
A
100
AcDbSymbolTableRecord
100
AcDbDimStyleTableRecord
  2
Standard
 70
     0
178
     0
340
11
  0
ENDTAB
  0
TABLE
  2
BLOCK_RECORD
  5
1
330
0
100
AcDbSymbolTable
 70
     1
  0
BLOCK_RECORD
  5
1F
330
1
100
AcDbSymbolTableRecord
100
AcDbBlockTableRecord
  2
*Model_Space
340
22
 70
     0
280
     1
281
     0
  0
BLOCK_RECORD
  5
1B
330
1
100
AcDbSymbolTableRecord
100
AcDbBlockTableRecord
  2
*Paper_Space
340
1E
 70
     0
280
     1
281
     0
  0
BLOCK_RECORD
  5
23
330
1
100
AcDbSymbolTableRecord
100
AcDbBlockTableRecord
  2
*Paper_Space0
340
26
 70
     0
280
     1
281
     0
  0
ENDTAB
  0
ENDSEC
  0
SECTION
  2
BLOCKS
  0
BLOCK
  5
20
330
1F
100
AcDbEntity
  8
0
100
AcDbBlockBegin
  2
*Model_Space
 70
     0
 10
0.0
 20
0.0
 30
0.0
  3
*Model_Space
  1

  0
ENDBLK
  5
21
330
1F
100
AcDbEntity
  8
0
100
AcDbBlockEnd
  0
BLOCK
  5
1C
330
1B
100
AcDbEntity
 67
     1
  8
0
100
AcDbBlockBegin
  2
*Paper_Space
 70
     0
 10
0.0
 20
0.0
 30
0.0
  3
*Paper_Space
  1

  0
ENDBLK
  5
1D
330
1B
100
AcDbEntity
 67
     1
  8
0
100
AcDbBlockEnd
  0
BLOCK
  5
24
330
23
100
AcDbEntity
  8
0
100
AcDbBlockBegin
  2
*Paper_Space0
 70
     0
 10
0.0
 20
0.0
 30
0.0
  3
*Paper_Space0
  1

  0
ENDBLK
  5
25
330
23
100
AcDbEntity
  8
0
100
AcDbBlockEnd
  0
ENDSEC
  0
SECTION
  2
ENTITIES
  0
SPLINE
  5
41
330
1F
100
AcDbEntity
  8
Layer 1
 62
   250
370
     9
100
AcDbSpline
210
0.0
220
0.0
230
1.0
 70
    11
 71
     3
 72
    44
 73
    40
 74
     0
 42
0.0000000001
 43
0.0000000001
 40
0.0
 40
0.0
 40
0.0
 40
0.0
 40
0.0909090909090909
 40
0.0909090909090909
 40
0.0909090909090909
 40
0.0909090909090909
 40
0.1818181818181818
 40
0.1818181818181818
 40
0.1818181818181818
 40
0.1818181818181818
 40
0.2727272727272727
 40
0.2727272727272727
 40
0.2727272727272727
 40
0.2727272727272727
 40
0.3636363636363636
 40
0.3636363636363636
 40
0.3636363636363636
 40
0.3636363636363636
 40
0.4545454545454545
 40
0.4545454545454545
 40
0.4545454545454545
 40
0.4545454545454545
 40
0.5454545454545454
 40
0.5454545454545454
 40
0.5454545454545454
 40
0.5454545454545454
 40
0.6363636363636364
 40
0.6363636363636364
 40
0.6363636363636364
 40
0.6363636363636364
 40
0.7272727272727273
 40
0.7272727272727273
 40
0.7272727272727273
 40
0.7272727272727273
 40
0.8181818181818182
 40
0.8181818181818182
 40
0.8181818181818182
 40
0.8181818181818182
 40
1.0
 40
1.0
 40
1.0
 40
1.0
 10
251.9583
 20
-426.7477
 30
0.0
 10
257.3805
 20
-426.724
 30
0.0
 10
251.182
 20
-425.3682
 30
0.0
 10
251.0076
 20
-424.119
 30
0.0
 10
251.0076
 20
-424.119
 30
0.0
 10
251.0029
 20
-424.0859
 30
0.0
 10
250.9887
 20
-424.0594
 30
0.0
 10
250.9647
 20
-424.0409
 30
0.0
 10
250.9647
 20
-424.0409
 30
0.0
 10
250.9411
 20
-424.0222
 30
0.0
 10
250.9148
 20
-424.0166
 30
0.0
 10
250.8871
 20
-424.0241
 30
0.0
 10
250.8871
 20
-424.0241
 30
0.0
 10
250.4395
 20
-424.1434
 30
0.0
 10
249.3756
 20
-424.2815
 30
0.0
 10
247.8687
 20
-424.2927
 30
0.0
 10
247.8687
 20
-424.2927
 30
0.0
 10
247.8687
 20
-424.2927
 30
0.0
 10
-153.5138
 20
-424.2927
 30
0.0
 10
-153.5138
 20
-424.2927
 30
0.0
 10
-153.5138
 20
-424.2927
 30
0.0
 10
-155.0207
 20
-424.2815
 30
0.0
 10
-156.0846
 20
-424.1434
 30
0.0
 10
-156.5323
 20
-424.0241
 30
0.0
 10
-156.5323
 20
-424.0241
 30
0.0
 10
-156.5951
 20
-424.007
 30
0.0
 10
-156.6443
 20
-424.0601
 30
0.0
 10
-156.6527
 20
-424.119
 30
0.0
 10
-156.6527
 20
-424.119
 30
0.0
 10
-156.806
 20
-425.2161
 30
0.0
 10
-161.6059
 20
-426.3958
 30
0.0
 10
-159.0986
 20
-426.6824
 30
0.0
 10
-159.0986
 20
-426.6824
 30
0.0
 10
-158.189
 20
-426.7863
 30
0.0
 10
-157.187
 20
-426.7477
 30
0.0
 10
-156.2648
 20
-426.7477
 30
0.0
 10
-156.2648
 20
-426.7477
 30
0.0
 10
-156.2648
 20
-426.7477
 30
0.0
 10
251.9583
 20
-426.7477
 30
0.0
 10
251.9583
 20
-426.7477
 30
0.0
  0
SPLINE
  5
42
330
1F
100
AcDbEntity
  8
Layer 1
 62
   250
370
     9
100
AcDbSpline
210
0.0
220
0.0
230
1.0
 70
    11
 71
     3
 72
    44
 73
    40
 74
     0
 42
0.0000000001
 43
0.0000000001
 40
0.0
 40
0.0
 40
0.0
 40
0.0
 40
0.0909090909090909
 40
0.0909090909090909
 40
0.0909090909090909
 40
0.0909090909090909
 40
0.1818181818181818
 40
0.1818181818181818
 40
0.1818181818181818
 40
0.1818181818181818
 40
0.2727272727272727
 40
0.2727272727272727
 40
0.2727272727272727
 40
0.2727272727272727
 40
0.3636363636363636
 40
0.3636363636363636
 40
0.3636363636363636
 40
0.3636363636363636
 40
0.4545454545454545
 40
0.4545454545454545
 40
0.4545454545454545
 40
0.4545454545454545
 40
0.5454545454545454
 40
0.5454545454545454
 40
0.5454545454545454
 40
0.5454545454545454
 40
0.6363636363636364
 40
0.6363636363636364
 40
0.6363636363636364
 40
0.6363636363636364
 40
0.7272727272727273
 40
0.7272727272727273
 40
0.7272727272727273
 40
0.7272727272727273
 40
0.8181818181818182
 40
0.8181818181818182
 40
0.8181818181818182
 40
0.8181818181818182
 40
1.0
 40
1.0
 40
1.0
 40
1.0
 10
269.6259
 20
-431.1653
 30
0.0
 10
275.8602
 20
-431.1416
 30
0.0
 10
268.7333
 20
-429.7858
 30
0.0
 10
268.5327
 20
-428.5366
 30
0.0
 10
268.5327
 20
-428.5366
 30
0.0
 10
268.5273
 20
-428.5035
 30
0.0
 10
268.511
 20
-428.477
 30
0.0
 10
268.4834
 20
-428.4584
 30
0.0
 10
268.4834
 20
-428.4584
 30
0.0
 10
268.4562
 20
-428.4398
 30
0.0
 10
268.426
 20
-428.4342
 30
0.0
 10
268.3942
 20
-428.4417
 30
0.0
 10
268.3942
 20
-428.4417
 30
0.0
 10
267.8795
 20
-428.5611
 30
0.0
 10
266.6563
 20
-428.6991
 30
0.0
 10
264.9236
 20
-428.7102
 30
0.0
 10
264.9236
 20
-428.7102
 30
0.0
 10
264.9236
 20
-428.7102
 30
0.0
 10
-170.569
 20
-428.7102
 30
0.0
 10
-170.569
 20
-428.7102
 30
0.0
 10
-170.569
 20
-428.7102
 30
0.0
 10
-172.3015
 20
-428.6991
 30
0.0
 10
-173.5248
 20
-428.5611
 30
0.0
 10
-174.0395
 20
-428.4417
 30
0.0
 10
-174.0395
 20
-428.4417
 30
0.0
 10
-174.0712
 20
-428.4342
 30
0.0
 10
-174.1016
 20
-428.4398
 30
0.0
 10
-174.1288
 20
-428.4584
 30
0.0
 10
-174.1288
 20
-428.4584
 30
0.0
 10
-174.1563
 20
-428.477
 30
0.0
 10
-174.1727
 20
-428.5035
 30
0.0
 10
-174.178
 20
-428.5366
 30
0.0
 10
-174.178
 20
-428.5366
 30
0.0
 10
-174.3785
 20
-429.7858
 30
0.0
 10
-181.5056
 20
-431.1416
 30
0.0
 10
-175.2712
 20
-431.1653
 30
0.0
 10
-175.2712
 20
-431.1653
 30
0.0
 10
-175.2712
 20
-431.1653
 30
0.0
 10
269.6259
 20
-431.1653
 30
0.0
 10
269.6259
 20
-431.1653
 30
0.0
  0
SPLINE
  5
43
330
1F
100
AcDbEntity
  8
Layer 1
 62
   250
370
     9
100
AcDbSpline
210
0.0
220
0.0
230
1.0
 70
    11
 71
     3
 72
    44
 73
    40
 74
     0
 42
0.0000000001
 43
0.0000000001
 40
0.0
 40
0.0
 40
0.0
 40
0.0
 40
0.0909090909090909
 40
0.0909090909090909
 40
0.0909090909090909
 40
0.0909090909090909
 40
0.1818181818181818
 40
0.1818181818181818
 40
0.1818181818181818
 40
0.1818181818181818
 40
0.2727272727272727
 40
0.2727272727272727
 40
0.2727272727272727
 40
0.2727272727272727
 40
0.3636363636363636
 40
0.3636363636363636
 40
0.3636363636363636
 40
0.3636363636363636
 40
0.4545454545454545
 40
0.4545454545454545
 40
0.4545454545454545
 40
0.4545454545454545
 40
0.5454545454545454
 40
0.5454545454545454
 40
0.5454545454545454
 40
0.5454545454545454
 40
0.6363636363636364
 40
0.6363636363636364
 40
0.6363636363636364
 40
0.6363636363636364
 40
0.7272727272727273
 40
0.7272727272727273
 40
0.7272727272727273
 40
0.7272727272727273
 40
0.8181818181818182
 40
0.8181818181818182
 40
0.8181818181818182
 40
0.8181818181818182
 40
1.0
 40
1.0
 40
1.0
 40
1.0
 10
251.9583
 20
-65.5828
 30
0.0
 10
257.3805
 20
-65.6066
 30
0.0
 10
251.182
 20
-66.9623
 30
0.0
 10
251.0076
 20
-68.2115
 30
0.0
 10
251.0076
 20
-68.2115
 30
0.0
 10
251.0029
 20
-68.2446
 30
0.0
 10
250.9887
 20
-68.2711
 30
0.0
 10
250.9647
 20
-68.2896
 30
0.0
 10
250.9647
 20
-68.2896
 30
0.0
 10
250.9411
 20
-68.3083
 30
0.0
 10
250.9148
 20
-68.3139
 30
0.0
 10
250.8871
 20
-68.3064
 30
0.0
 10
250.8871
 20
-68.3064
 30
0.0
 10
250.4395
 20
-68.187
 30
0.0
 10
249.3756
 20
-68.0491
 30
0.0
 10
247.8687
 20
-68.0378
 30
0.0
 10
247.8687
 20
-68.0378
 30
0.0
 10
247.8687
 20
-68.0378
 30
0.0
 10
-153.5138
 20
-68.0378
 30
0.0
 10
-153.5138
 20
-68.0378
 30
0.0
 10
-153.5138
 20
-68.0378
 30
0.0
 10
-155.0207
 20
-68.0491
 30
0.0
 10
-156.0846
 20
-68.187
 30
0.0
 10
-156.5323
 20
-68.3064
 30
0.0
 10
-156.5323
 20
-68.3064
 30
0.0
 10
-156.5951
 20
-68.3235
 30
0.0
 10
-156.6443
 20
-68.2704
 30
0.0
 10
-156.6527
 20
-68.2115
 30
0.0
 10
-156.6527
 20
-68.2115
 30
0.0
 10
-156.806
 20
-67.1143
 30
0.0
 10
-161.6059
 20
-65.9347
 30
0.0
 10
-159.0986
 20
-65.6481
 30
0.0
 10
-159.0986
 20
-65.6481
 30
0.0
 10
-158.189
 20
-65.5442
 30
0.0
 10
-157.187
 20
-65.5828
 30
0.0
 10
-156.2648
 20
-65.5828
 30
0.0
 10
-156.2648
 20
-65.5828
 30
0.0
 10
-156.2648
 20
-65.5828
 30
0.0
 10
251.9583
 20
-65.5828
 30
0.0
 10
251.9583
 20
-65.5828
 30
0.0
  0
SPLINE
  5
44
330
1F
100
AcDbEntity
  8
Layer 1
 62
   250
370
     9
100
AcDbSpline
210
0.0
220
0.0
230
1.0
 70
    11
 71
     3
 72
    44
 73
    40
 74
     0
 42
0.0000000001
 43
0.0000000001
 40
0.0
 40
0.0
 40
0.0
 40
0.0
 40
0.0909090909090909
 40
0.0909090909090909
 40
0.0909090909090909
 40
0.0909090909090909
 40
0.1818181818181818
 40
0.1818181818181818
 40
0.1818181818181818
 40
0.1818181818181818
 40
0.2727272727272727
 40
0.2727272727272727
 40
0.2727272727272727
 40
0.2727272727272727
 40
0.3636363636363636
 40
0.3636363636363636
 40
0.3636363636363636
 40
0.3636363636363636
 40
0.4545454545454545
 40
0.4545454545454545
 40
0.4545454545454545
 40
0.4545454545454545
 40
0.5454545454545454
 40
0.5454545454545454
 40
0.5454545454545454
 40
0.5454545454545454
 40
0.6363636363636364
 40
0.6363636363636364
 40
0.6363636363636364
 40
0.6363636363636364
 40
0.7272727272727273
 40
0.7272727272727273
 40
0.7272727272727273
 40
0.7272727272727273
 40
0.8181818181818182
 40
0.8181818181818182
 40
0.8181818181818182
 40
0.8181818181818182
 40
1.0
 40
1.0
 40
1.0
 40
1.0
 10
269.6259
 20
-61.1652
 30
0.0
 10
275.8602
 20
-61.1889
 30
0.0
 10
268.7333
 20
-62.5447
 30
0.0
 10
268.5327
 20
-63.7939
 30
0.0
 10
268.5327
 20
-63.7939
 30
0.0
 10
268.5273
 20
-63.827
 30
0.0
 10
268.511
 20
-63.8535
 30
0.0
 10
268.4834
 20
-63.872
 30
0.0
 10
268.4834
 20
-63.872
 30
0.0
 10
268.4562
 20
-63.8907
 30
0.0
 10
268.426
 20
-63.8963
 30
0.0
 10
268.3942
 20
-63.8888
 30
0.0
 10
268.3942
 20
-63.8888
 30
0.0
 10
267.8795
 20
-63.7694
 30
0.0
 10
266.6563
 20
-63.6314
 30
0.0
 10
264.9236
 20
-63.6202
 30
0.0
 10
264.9236
 20
-63.6202
 30
0.0
 10
264.9236
 20
-63.6202
 30
0.0
 10
-170.569
 20
-63.6202
 30
0.0
 10
-170.569
 20
-63.6202
 30
0.0
 10
-170.569
 20
-63.6202
 30
0.0
 10
-172.3015
 20
-63.6314
 30
0.0
 10
-173.5248
 20
-63.7694
 30
0.0
 10
-174.0395
 20
-63.8888
 30
0.0
 10
-174.0395
 20
-63.8888
 30
0.0
 10
-174.0712
 20
-63.8963
 30
0.0
 10
-174.1016
 20
-63.8907
 30
0.0
 10
-174.1288
 20
-63.872
 30
0.0
 10
-174.1288
 20
-63.872
 30
0.0
 10
-174.1563
 20
-63.8535
 30
0.0
 10
-174.1727
 20
-63.827
 30
0.0
 10
-174.178
 20
-63.7939
 30
0.0
 10
-174.178
 20
-63.7939
 30
0.0
 10
-174.3785
 20
-62.5447
 30
0.0
 10
-181.5056
 20
-61.1889
 30
0.0
 10
-175.2712
 20
-61.1652
 30
0.0
 10
-175.2712
 20
-61.1652
 30
0.0
 10
-175.2712
 20
-61.1652
 30
0.0
 10
269.6259
 20
-61.1652
 30
0.0
 10
269.6259
 20
-61.1652
 30
0.0
  0
SPLINE
  5
45
330
1F
100
AcDbEntity
  8
Layer 1
 62
   250
370
     9
100
AcDbSpline
210
0.0
220
0.0
230
1.0
 70
    11
 71
     3
 72
    52
 73
    48
 74
     0
 42
0.0000000001
 43
0.0000000001
 40
0.0
 40
0.0
 40
0.0
 40
0.0
 40
0.0769230769230769
 40
0.0769230769230769
 40
0.0769230769230769
 40
0.0769230769230769
 40
0.1538461538461539
 40
0.1538461538461539
 40
0.1538461538461539
 40
0.1538461538461539
 40
0.2307692307692308
 40
0.2307692307692308
 40
0.2307692307692308
 40
0.2307692307692308
 40
0.3076923076923077
 40
0.3076923076923077
 40
0.3076923076923077
 40
0.3076923076923077
 40
0.3846153846153846
 40
0.3846153846153846
 40
0.3846153846153846
 40
0.3846153846153846
 40
0.4615384615384616
 40
0.4615384615384616
 40
0.4615384615384616
 40
0.4615384615384616
 40
0.5384615384615384
 40
0.5384615384615384
 40
0.5384615384615384
 40
0.5384615384615384
 40
0.6153846153846154
 40
0.6153846153846154
 40
0.6153846153846154
 40
0.6153846153846154
 40
0.6923076923076923
 40
0.6923076923076923
 40
0.6923076923076923
 40
0.6923076923076923
 40
0.7692307692307693
 40
0.7692307692307693
 40
0.7692307692307693
 40
0.7692307692307693
 40
0.8461538461538461
 40
0.8461538461538461
 40
0.8461538461538461
 40
0.8461538461538461
 40
1.0
 40
1.0
 40
1.0
 40
1.0
 10
-284.0506
 20
-121.5927
 30
0.0
 10
-284.0175
 20
-121.5944
 30
0.0
 10
-283.9884
 20
-121.5838
 30
0.0
 10
-283.9641
 20
-121.5604
 30
0.0
 10
-283.9641
 20
-121.5604
 30
0.0
 10
-283.9405
 20
-121.5375
 30
0.0
 10
-283.9283
 20
-121.509
 30
0.0
 10
-283.9283
 20
-121.4757
 30
0.0
 10
-283.9283
 20
-121.4757
 30
0.0
 10
-283.9283
 20
-121.4757
 30
0.0
 10
-283.9321
 20
-118.5106
 30
0.0
 10
-283.9321
 20
-118.5106
 30
0.0
 10
-283.9321
 20
-118.5106
 30
0.0
 10
-283.9321
 20
-118.4877
 30
0.0
 10
-283.9379
 20
-118.4677
 30
0.0
 10
-283.9502
 20
-118.4483
 30
0.0
 10
-283.9502
 20
-118.4483
 30
0.0
 10
-285.713
 20
-115.6619
 30
0.0
 10
-287.8416
 20
-113.7262
 30
0.0
 10
-287.8222
 20
-118.9321
 30
0.0
 10
-287.8222
 20
-118.9321
 30
0.0
 10
-287.8222
 20
-118.9321
 30
0.0
 10
-287.8226
 20
-182.5657
 30
0.0
 10
-287.8226
 20
-182.5657
 30
0.0
 10
-287.8226
 20
-182.5657
 30
0.0
 10
-287.7988
 20
-188.9176
 30
0.0
 10
-286.44
 20
-181.6562
 30
0.0
 10
-285.1879
 20
-181.4518
 30
0.0
 10
-285.1879
 20
-181.4518
 30
0.0
 10
-285.1547
 20
-181.4464
 30
0.0
 10
-285.1282
 20
-181.4297
 30
0.0
 10
-285.1096
 20
-181.4016
 30
0.0
 10
-285.1096
 20
-181.4016
 30
0.0
 10
-285.0909
 20
-181.3739
 30
0.0
 10
-285.0853
 20
-181.3431
 30
0.0
 10
-285.0928
 20
-181.3107
 30
0.0
 10
-285.0928
 20
-181.3107
 30
0.0
 10
-285.2125
 20
-180.7864
 30
0.0
 10
-285.3508
 20
-179.54
 30
0.0
 10
-285.362
 20
-177.7747
 30
0.0
 10
-285.362
 20
-177.7747
 30
0.0
 10
-285.362
 20
-177.7747
 30
0.0
 10
-285.4184
 20
-129.2796
 30
0.0
 10
-285.4184
 20
-129.2796
 30
0.0
 10
-285.4184
 20
-129.2796
 30
0.0
 10
-285.4556
 20
-123.4934
 30
0.0
 10
-284.9697
 20
-121.5491
 30
0.0
 10
-284.0506
 20
-121.5927
 30
0.0
  0
SPLINE
  5
46
330
1F
100
AcDbEntity
  8
Layer 1
 62
   250
370
     9
100
AcDbSpline
210
0.0
220
0.0
230
1.0
 70
    11
 71
     3
 72
   260
 73
   256
 74
     0
 42
0.0000000001
 43
0.0000000001
 40
0.0
 40
0.0
 40
0.0
 40
0.0
 40
0.0153846153846154
 40
0.0153846153846154
 40
0.0153846153846154
 40
0.0153846153846154
 40
0.0307692307692308
 40
0.0307692307692308
 40
0.0307692307692308
 40
0.0307692307692308
 40
0.0461538461538462
 40
0.0461538461538462
 40
0.0461538461538462
 40
0.0461538461538462
 40
0.0615384615384615
 40
0.0615384615384615
 40
0.0615384615384615
 40
0.0615384615384615
 40
0.0769230769230769
 40
0.0769230769230769
 40
0.0769230769230769
 40
0.0769230769230769
 40
0.0923076923076923
 40
0.0923076923076923
 40
0.0923076923076923
 40
0.0923076923076923
 40
0.1076923076923077
 40
0.1076923076923077
 40
0.1076923076923077
 40
0.1076923076923077
 40
0.1230769230769231
 40
0.1230769230769231
 40
0.1230769230769231
 40
0.1230769230769231
 40
0.1384615384615385
 40
0.1384615384615385
 40
0.1384615384615385
 40
0.1384615384615385
 40
0.1538461538461539
 40
0.1538461538461539
 40
0.1538461538461539
 40
0.1538461538461539
 40
0.1692307692307692
 40
0.1692307692307692
 40
0.1692307692307692
 40
0.1692307692307692
 40
0.1846153846153846
 40
0.1846153846153846
 40
0.1846153846153846
 40
0.1846153846153846
 40
0.2
 40
0.2
 40
0.2
 40
0.2
 40
0.2153846153846154
 40
0.2153846153846154
 40
0.2153846153846154
 40
0.2153846153846154
 40
0.2307692307692308
 40
0.2307692307692308
 40
0.2307692307692308
 40
0.2307692307692308
 40
0.2461538461538462
 40
0.2461538461538462
 40
0.2461538461538462
 40
0.2461538461538462
 40
0.2615384615384616
 40
0.2615384615384616
 40
0.2615384615384616
 40
0.2615384615384616
 40
0.2769230769230769
 40
0.2769230769230769
 40
0.2769230769230769
 40
0.2769230769230769
 40
0.2923076923076923
 40
0.2923076923076923
 40
0.2923076923076923
 40
0.2923076923076923
 40
0.3076923076923077
 40
0.3076923076923077
 40
0.3076923076923077
 40
0.3076923076923077
 40
0.3230769230769231
 40
0.3230769230769231
 40
0.3230769230769231
 40
0.3230769230769231
 40
0.3384615384615385
 40
0.3384615384615385
 40
0.3384615384615385
 40
0.3384615384615385
 40
0.3538461538461539
 40
0.3538461538461539
 40
0.3538461538461539
 40
0.3538461538461539
 40
0.3692307692307693
 40
0.3692307692307693
 40
0.3692307692307693
 40
0.3692307692307693
 40
0.3846153846153846
 40
0.3846153846153846
 40
0.3846153846153846
 40
0.3846153846153846
 40
0.4
 40
0.4
 40
0.4
 40
0.4
 40
0.4153846153846154
 40
0.4153846153846154
 40
0.4153846153846154
 40
0.4153846153846154
 40
0.4307692307692308
 40
0.4307692307692308
 40
0.4307692307692308
 40
0.4307692307692308
 40
0.4461538461538462
 40
0.4461538461538462
 40
0.4461538461538462
 40
0.4461538461538462
 40
0.4615384615384616
 40
0.4615384615384616
 40
0.4615384615384616
 40
0.4615384615384616
 40
0.4769230769230769
 40
0.4769230769230769
 40
0.4769230769230769
 40
0.4769230769230769
 40
0.4923076923076923
 40
0.4923076923076923
 40
0.4923076923076923
 40
0.4923076923076923
 40
0.5076923076923077
 40
0.5076923076923077
 40
0.5076923076923077
 40
0.5076923076923077
 40
0.5230769230769231
 40
0.5230769230769231
 40
0.5230769230769231
 40
0.5230769230769231
 40
0.5384615384615384
 40
0.5384615384615384
 40
0.5384615384615384
 40
0.5384615384615384
 40
0.5538461538461539
 40
0.5538461538461539
 40
0.5538461538461539
 40
0.5538461538461539
 40
0.5692307692307692
 40
0.5692307692307692
 40
0.5692307692307692
 40
0.5692307692307692
 40
0.5846153846153846
 40
0.5846153846153846
 40
0.5846153846153846
 40
0.5846153846153846
 40
0.6
 40
0.6
 40
0.6
 40
0.6
 40
0.6153846153846154
 40
0.6153846153846154
 40
0.6153846153846154
 40
0.6153846153846154
 40
0.6307692307692307
 40
0.6307692307692307
 40
0.6307692307692307
 40
0.6307692307692307
 40
0.6461538461538462
 40
0.6461538461538462
 40
0.6461538461538462
 40
0.6461538461538462
 40
0.6615384615384615
 40
0.6615384615384615
 40
0.6615384615384615
 40
0.6615384615384615
 40
0.676923076923077
 40
0.676923076923077
 40
0.676923076923077
 40
0.676923076923077
 40
0.6923076923076923
 40
0.6923076923076923
 40
0.6923076923076923
 40
0.6923076923076923
 40
0.7076923076923077
 40
0.7076923076923077
 40
0.7076923076923077
 40
0.7076923076923077
 40
0.7230769230769231
 40
0.7230769230769231
 40
0.7230769230769231
 40
0.7230769230769231
 40
0.7384615384615385
 40
0.7384615384615385
 40
0.7384615384615385
 40
0.7384615384615385
 40
0.7538461538461538
 40
0.7538461538461538
 40
0.7538461538461538
 40
0.7538461538461538
 40
0.7692307692307693
 40
0.7692307692307693
 40
0.7692307692307693
 40
0.7692307692307693
 40
0.7846153846153846
 40
0.7846153846153846
 40
0.7846153846153846
 40
0.7846153846153846
 40
0.8
 40
0.8
 40
0.8
 40
0.8
 40
0.8153846153846154
 40
0.8153846153846154
 40
0.8153846153846154
 40
0.8153846153846154
 40
0.8307692307692308
 40
0.8307692307692308
 40
0.8307692307692308
 40
0.8307692307692308
 40
0.8461538461538461
 40
0.8461538461538461
 40
0.8461538461538461
 40
0.8461538461538461
 40
0.8615384615384616
 40
0.8615384615384616
 40
0.8615384615384616
 40
0.8615384615384616
 40
0.8769230769230769
 40
0.8769230769230769
 40
0.8769230769230769
 40
0.8769230769230769
 40
0.8923076923076924
 40
0.8923076923076924
 40
0.8923076923076924
 40
0.8923076923076924
 40
0.9076923076923077
 40
0.9076923076923077
 40
0.9076923076923077
 40
0.9076923076923077
 40
0.9230769230769231
 40
0.9230769230769231
 40
0.9230769230769231
 40
0.9230769230769231
 40
0.9384615384615385
 40
0.9384615384615385
 40
0.9384615384615385
 40
0.9384615384615385
 40
0.9538461538461539
 40
0.9538461538461539
 40
0.9538461538461539
 40
0.9538461538461539
 40
0.9692307692307692
 40
0.9692307692307692
 40
0.9692307692307692
 40
0.9692307692307692
 40
1.0
 40
1.0
 40
1.0
 40
1.0
 10
-265.5717
 20
-90.8376
 30
0.0
 10
-263.7796
 20
-84.7975
 30
0.0
 10
-257.3733
 20
-80.9787
 30
0.0
 10
-255.5362
 20
-82.9406
 30
0.0
 10
-255.5362
 20
-82.9406
 30
0.0
 10
-253.294
 20
-85.336
 30
0.0
 10
-248.2957
 20
-92.2114
 30
0.0
 10
-240.7953
 20
-94.1997
 30
0.0
 10
-240.7953
 20
-94.1997
 30
0.0
 10
-240.7564
 20
-94.2101
 30
0.0
 10
-240.7281
 20
-94.2368
 30
0.0
 10
-240.7148
 20
-94.2745
 30
0.0
 10
-240.7148
 20
-94.2745
 30
0.0
 10
-240.7014
 20
-94.3127
 30
0.0
 10
-240.7077
 20
-94.351
 30
0.0
 10
-240.7317
 20
-94.3833
 30
0.0
 10
-240.7317
 20
-94.3833
 30
0.0
 10
-243.0161
 20
-97.42
 30
0.0
 10
-245.8393
 20
-99.5606
 30
0.0
 10
-249.2657
 20
-101.1553
 30
0.0
 10
-249.2657
 20
-101.1553
 30
0.0
 10
-249.2946
 20
-101.1689
 30
0.0
 10
-249.3243
 20
-101.17
 30
0.0
 10
-249.3547
 20
-101.1591
 30
0.0
 10
-249.3547
 20
-101.1591
 30
0.0
 10
-254.536
 20
-99.2908
 30
0.0
 10
-257.8877
 20
-95.846
 30
0.0
 10
-257.5135
 20
-93.5903
 30
0.0
 10
-257.5135
 20
-93.5903
 30
0.0
 10
-256.9578
 20
-90.2393
 30
0.0
 10
-257.4073
 20
-85.6571
 30
0.0
 10
-259.6945
 20
-86.4893
 30
0.0
 10
-259.6945
 20
-86.4893
 30
0.0
 10
-262.1555
 20
-87.3849
 30
0.0
 10
-263.4445
 20
-89.2855
 30
0.0
 10
-263.7663
 20
-91.4802
 30
0.0
 10
-263.7663
 20
-91.4802
 30
0.0
 10
-263.7663
 20
-91.4802
 30
0.0
 10
-263.7871
 20
-91.6358
 30
0.0
 10
-263.7871
 20
-91.6358
 30
0.0
 10
-263.7871
 20
-91.6358
 30
0.0
 10
-264.6604
 20
-98.6165
 30
0.0
 10
-255.888
 20
-108.3686
 30
0.0
 10
-243.7605
 20
-98.4328
 30
0.0
 10
-243.7605
 20
-98.4328
 30
0.0
 10
-232.5265
 20
-89.229
 30
0.0
 10
-237.1566
 20
-75.0359
 30
0.0
 10
-247.8636
 20
-68.7563
 30
0.0
 10
-247.8636
 20
-68.7563
 30
0.0
 10
-247.8636
 20
-68.7563
 30
0.0
 10
-247.8783
 20
-68.7479
 30
0.0
 10
-247.8783
 20
-68.7479
 30
0.0
 10
-247.8783
 20
-68.7479
 30
0.0
 10
-247.8789
 20
-68.7474
 30
0.0
 10
-247.8796
 20
-68.7473
 30
0.0
 10
-247.8802
 20
-68.747
 30
0.0
 10
-247.8802
 20
-68.747
 30
0.0
 10
-270.28
 20
-55.6354
 30
0.0
 10
-295.6921
 20
-86.7183
 30
0.0
 10
-280.9229
 20
-110.1313
 30
0.0
 10
-280.9229
 20
-110.1313
 30
0.0
 10
-280.9109
 20
-110.1508
 30
0.0
 10
-280.9049
 20
-110.1704
 30
0.0
 10
-280.9049
 20
-110.1936
 30
0.0
 10
-280.9049
 20
-110.1936
 30
0.0
 10
-280.9049
 20
-110.1936
 30
0.0
 10
-281.0097
 20
-173.2668
 30
0.0
 10
-281.0097
 20
-173.2668
 30
0.0
 10
-281.0097
 20
-173.2668
 30
0.0
 10
-281.0094
 20
-173.3111
 30
0.0
 10
-281.0326
 20
-173.3496
 30
0.0
 10
-281.0717
 20
-173.3704
 30
0.0
 10
-281.0717
 20
-173.3704
 30
0.0
 10
-281.1115
 20
-173.3916
 30
0.0
 10
-281.1561
 20
-173.3885
 30
0.0
 10
-281.1929
 20
-173.363
 30
0.0
 10
-281.1929
 20
-173.363
 30
0.0
 10
-282.3189
 20
-172.5826
 30
0.0
 10
-283.7123
 20
-178.7129
 30
0.0
 10
-283.5025
 20
-175.6823
 30
0.0
 10
-283.5025
 20
-175.6823
 30
0.0
 10
-283.502
 20
-175.6795
 30
0.0
 10
-283.502
 20
-175.6768
 30
0.0
 10
-283.502
 20
-175.6739
 30
0.0
 10
-283.502
 20
-175.6739
 30
0.0
 10
-283.502
 20
-175.6739
 30
0.0
 10
-283.3501
 20
-116.1909
 30
0.0
 10
-283.3501
 20
-116.1909
 30
0.0
 10
-283.3501
 20
-116.1909
 30
0.0
 10
-283.3501
 20
-116.1733
 30
0.0
 10
-283.3537
 20
-116.1583
 30
0.0
 10
-283.3609
 20
-116.1424
 30
0.0
 10
-283.3609
 20
-116.1424
 30
0.0
 10
-290.0153
 20
-101.6165
 30
0.0
 10
-289.6129
 20
-83.2372
 30
0.0
 10
-278.455
 20
-70.7386
 30
0.0
 10
-278.455
 20
-70.7386
 30
0.0
 10
-269.8847
 20
-61.1383
 30
0.0
 10
-257.3463
 20
-60.1146
 30
0.0
 10
-246.5704
 20
-66.0657
 30
0.0
 10
-246.5704
 20
-66.0657
 30
0.0
 10
-246.5704
 20
-66.0657
 30
0.0
 10
-246.5287
 20
-66.0891
 30
0.0
 10
-246.5287
 20
-66.0891
 30
0.0
 10
-246.5287
 20
-66.0891
 30
0.0
 10
-240.5258
 20
-69.4146
 30
0.0
 10
-235.8449
 20
-74.1882
 30
0.0
 10
-232.388
 20
-77.5193
 30
0.0
 10
-232.388
 20
-77.5193
 30
0.0
 10
-227.611
 20
-82.1226
 30
0.0
 10
-220.5439
 20
-80.3496
 30
0.0
 10
-225.053
 20
-75.6883
 30
0.0
 10
-225.053
 20
-75.6883
 30
0.0
 10
-225.0779
 20
-75.6624
 30
0.0
 10
-225.0895
 20
-75.6302
 30
0.0
 10
-225.0858
 20
-75.5945
 30
0.0
 10
-225.0858
 20
-75.5945
 30
0.0
 10
-225.0822
 20
-75.5587
 30
0.0
 10
-225.0641
 20
-75.5295
 30
0.0
 10
-225.0346
 20
-75.5095
 30
0.0
 10
-225.0346
 20
-75.5095
 30
0.0
 10
-224.7409
 20
-75.3125
 30
0.0
 10
-224.2942
 20
-75.2674
 30
0.0
 10
-223.9811
 20
-75.4834
 30
0.0
 10
-223.9811
 20
-75.4834
 30
0.0
 10
-218.9693
 20
-78.9422
 30
0.0
 10
-214.4857
 20
-76.0235
 30
0.0
 10
-214.34
 20
-73.2419
 30
0.0
 10
-214.34
 20
-73.2419
 30
0.0
 10
-214.2003
 20
-70.5731
 30
0.0
 10
-217.5443
 20
-67.7681
 30
0.0
 10
-223.4624
 20
-71.7076
 30
0.0
 10
-223.4624
 20
-71.7076
 30
0.0
 10
-223.8103
 20
-71.9389
 30
0.0
 10
-224.0122
 20
-72.0777
 30
0.0
 10
-224.3975
 20
-71.9936
 30
0.0
 10
-224.3975
 20
-71.9936
 30
0.0
 10
-224.4379
 20
-71.985
 30
0.0
 10
-224.4684
 20
-71.9585
 30
0.0
 10
-224.4826
 20
-71.92
 30
0.0
 10
-224.4826
 20
-71.92
 30
0.0
 10
-224.4967
 20
-71.8812
 30
0.0
 10
-224.4905
 20
-71.8413
 30
0.0
 10
-224.4656
 20
-71.8086
 30
0.0
 10
-224.4656
 20
-71.8086
 30
0.0
 10
-220.8441
 20
-67.021
 30
0.0
 10
-233.2248
 20
-60.7979
 30
0.0
 10
-216.036
 20
-61.1822
 30
0.0
 10
-216.036
 20
-61.1822
 30
0.0
 10
-205.6713
 20
-61.4139
 30
0.0
 10
-213.9336
 20
-66.7504
 30
0.0
 10
-209.387
 20
-68.2822
 30
0.0
 10
-209.387
 20
-68.2822
 30
0.0
 10
-209.3515
 20
-68.2941
 30
0.0
 10
-209.3165
 20
-68.2891
 30
0.0
 10
-209.2851
 20
-68.2687
 30
0.0
 10
-209.2851
 20
-68.2687
 30
0.0
 10
-203.2338
 20
-64.2984
 30
0.0
 10
-188.9966
 20
-57.2968
 30
0.0
 10
-183.2976
 20
-65.0486
 30
0.0
 10
-183.2976
 20
-65.0486
 30
0.0
 10
-180.4069
 20
-68.9801
 30
0.0
 10
-181.6071
 20
-75.1376
 30
0.0
 10
-188.3069
 20
-75.2713
 30
0.0
 10
-188.3069
 20
-75.2713
 30
0.0
 10
-189.3425
 20
-75.3009
 30
0.0
 10
-190.6274
 20
-73.9522
 30
0.0
 10
-190.7675
 20
-72.5176
 30
0.0
 10
-190.7675
 20
-72.5176
 30
0.0
 10
-190.9238
 20
-70.9187
 30
0.0
 10
-189.7944
 20
-69.2447
 30
0.0
 10
-188.1343
 20
-69.9168
 30
0.0
 10
-188.1343
 20
-69.9168
 30
0.0
 10
-183.4298
 20
-71.8214
 30
0.0
 10
-182.2169
 20
-53.0412
 30
0.0
 10
-208.6368
 20
-72.2063
 30
0.0
 10
-208.6368
 20
-72.2063
 30
0.0
 10
-220.0878
 20
-80.5129
 30
0.0
 10
-229.9201
 20
-95.221
 30
0.0
 10
-233.7039
 20
-86.4798
 30
0.0
 10
-233.7039
 20
-86.4798
 30
0.0
 10
-233.7236
 20
-86.4329
 30
0.0
 10
-233.7686
 20
-86.4048
 30
0.0
 10
-233.8193
 20
-86.4088
 30
0.0
 10
-233.8193
 20
-86.4088
 30
0.0
 10
-233.8699
 20
-86.4121
 30
0.0
 10
-233.9103
 20
-86.446
 30
0.0
 10
-233.9236
 20
-86.4949
 30
0.0
 10
-233.9236
 20
-86.4949
 30
0.0
 10
-237.4041
 20
-99.4116
 30
0.0
 10
-248.8758
 20
-104.0639
 30
0.0
 10
-255.6826
 20
-104.372
 30
0.0
 10
-255.6826
 20
-104.372
 30
0.0
 10
-268.3167
 20
-104.9444
 30
0.0
 10
-276.4974
 20
-105.6718
 30
0.0
 10
-276.8839
 20
-130.0478
 30
0.0
 10
-276.8839
 20
-130.0478
 30
0.0
 10
-276.9307
 20
-132.9966
 30
0.0
 10
-278.495
 20
-129.8056
 30
0.0
 10
-280.2734
 20
-126.5348
 30
0.0
 10
-280.2734
 20
-126.5348
 30
0.0
 10
-280.2833
 20
-126.5169
 30
0.0
 10
-280.2879
 20
-126.4996
 30
0.0
 10
-280.2879
 20
-126.479
 30
0.0
 10
-280.2879
 20
-126.479
 30
0.0
 10
-280.2879
 20
-126.479
 30
0.0
 10
-280.2951
 20
-122.622
 30
0.0
 10
-280.2951
 20
-122.622
 30
0.0
 10
-280.2951
 20
-122.622
 30
0.0
 10
-280.2951
 20
-122.5806
 30
0.0
 10
-280.2758
 20
-122.545
 30
0.0
 10
-280.2408
 20
-122.5226
 30
0.0
 10
-280.2408
 20
-122.5226
 30
0.0
 10
-280.2057
 20
-122.5006
 30
0.0
 10
-280.1651
 20
-122.498
 30
0.0
 10
-280.128
 20
-122.516
 30
0.0
 10
-280.128
 20
-122.516
 30
0.0
 10
-278.7603
 20
-123.1667
 30
0.0
 10
-277.8588
 20
-121.5574
 30
0.0
 10
-278.2608
 20
-113.9201
 30
0.0
 10
-278.2608
 20
-113.9201
 30
0.0
 10
-278.5187
 20
-109.0167
 30
0.0
 10
-276.7606
 20
-105.7634
 30
0.0
 10
-273.4387
 20
-104.3188
 30
0.0
 10
-273.4387
 20
-104.3188
 30
0.0
 10
-273.4103
 20
-104.3063
 30
0.0
 10
-273.39
 20
-104.2862
 30
0.0
 10
-273.3779
 20
-104.2579
 30
0.0
 10
-273.3779
 20
-104.2579
 30
0.0
 10
-272.7834
 20
-102.8812
 30
0.0
 10
-276.074
 20
-103.0606
 30
0.0
 10
-275.7802
 20
-101.3363
 30
0.0
 10
-275.7802
 20
-101.3363
 30
0.0
 10
-275.7749
 20
-101.306
 30
0.0
 10
-275.7604
 20
-101.2819
 30
0.0
 10
-275.7363
 20
-101.2633
 30
0.0
 10
-275.7363
 20
-101.2633
 30
0.0
 10
-273.1372
 20
-99.2522
 30
0.0
 10
-269.3344
 20
-98.8783
 30
0.0
 10
-264.1037
 20
-100.8223
 30
0.0
 10
-264.1037
 20
-100.8223
 30
0.0
 10
-264.0554
 20
-100.84
 30
0.0
 10
-264.0036
 20
-100.8258
 30
0.0
 10
-263.9716
 20
-100.7857
 30
0.0
 10
-263.9716
 20
-100.7857
 30
0.0
 10
-263.9402
 20
-100.7458
 30
0.0
 10
-263.9372
 20
-100.6922
 30
0.0
 10
-263.9648
 20
-100.6494
 30
0.0
 10
-263.9648
 20
-100.6494
 30
0.0
 10
-266.2024
 20
-97.1745
 30
0.0
 10
-266.4241
 20
-93.8138
 30
0.0
 10
-265.6034
 20
-90.946
 30
0.0
 10
-265.6034
 20
-90.946
 30
0.0
 10
-265.6034
 20
-90.946
 30
0.0
 10
-265.5717
 20
-90.8376
 30
0.0
 10
-265.5717
 20
-90.8376
 30
0.0
  0
SPLINE
  5
47
330
1F
100
AcDbEntity
  8
Layer 1
 62
   250
370
     9
100
AcDbSpline
210
0.0
220
0.0
230
1.0
 70
    11
 71
     3
 72
    52
 73
    48
 74
     0
 42
0.0000000001
 43
0.0000000001
 40
0.0
 40
0.0
 40
0.0
 40
0.0
 40
0.0769230769230769
 40
0.0769230769230769
 40
0.0769230769230769
 40
0.0769230769230769
 40
0.1538461538461539
 40
0.1538461538461539
 40
0.1538461538461539
 40
0.1538461538461539
 40
0.2307692307692308
 40
0.2307692307692308
 40
0.2307692307692308
 40
0.2307692307692308
 40
0.3076923076923077
 40
0.3076923076923077
 40
0.3076923076923077
 40
0.3076923076923077
 40
0.3846153846153846
 40
0.3846153846153846
 40
0.3846153846153846
 40
0.3846153846153846
 40
0.4615384615384616
 40
0.4615384615384616
 40
0.4615384615384616
 40
0.4615384615384616
 40
0.5384615384615384
 40
0.5384615384615384
 40
0.5384615384615384
 40
0.5384615384615384
 40
0.6153846153846154
 40
0.6153846153846154
 40
0.6153846153846154
 40
0.6153846153846154
 40
0.6923076923076923
 40
0.6923076923076923
 40
0.6923076923076923
 40
0.6923076923076923
 40
0.7692307692307693
 40
0.7692307692307693
 40
0.7692307692307693
 40
0.7692307692307693
 40
0.8461538461538461
 40
0.8461538461538461
 40
0.8461538461538461
 40
0.8461538461538461
 40
1.0
 40
1.0
 40
1.0
 40
1.0
 10
-284.0506
 20
-370.7377
 30
0.0
 10
-284.0175
 20
-370.7361
 30
0.0
 10
-283.9884
 20
-370.7466
 30
0.0
 10
-283.9641
 20
-370.7701
 30
0.0
 10
-283.9641
 20
-370.7701
 30
0.0
 10
-283.9405
 20
-370.7929
 30
0.0
 10
-283.9283
 20
-370.8214
 30
0.0
 10
-283.9283
 20
-370.8547
 30
0.0
 10
-283.9283
 20
-370.8547
 30
0.0
 10
-283.9283
 20
-370.8547
 30
0.0
 10
-283.9321
 20
-373.8198
 30
0.0
 10
-283.9321
 20
-373.8198
 30
0.0
 10
-283.9321
 20
-373.8198
 30
0.0
 10
-283.9321
 20
-373.8427
 30
0.0
 10
-283.9379
 20
-373.8627
 30
0.0
 10
-283.9502
 20
-373.8821
 30
0.0
 10
-283.9502
 20
-373.8821
 30
0.0
 10
-285.713
 20
-376.6685
 30
0.0
 10
-287.8416
 20
-378.6042
 30
0.0
 10
-287.8222
 20
-373.3983
 30
0.0
 10
-287.8222
 20
-373.3983
 30
0.0
 10
-287.8222
 20
-373.3983
 30
0.0
 10
-287.8226
 20
-309.7647
 30
0.0
 10
-287.8226
 20
-309.7647
 30
0.0
 10
-287.8226
 20
-309.7647
 30
0.0
 10
-287.7988
 20
-303.4128
 30
0.0
 10
-286.44
 20
-310.6742
 30
0.0
 10
-285.1879
 20
-310.8786
 30
0.0
 10
-285.1879
 20
-310.8786
 30
0.0
 10
-285.1547
 20
-310.884
 30
0.0
 10
-285.1282
 20
-310.9007
 30
0.0
 10
-285.1096
 20
-310.9288
 30
0.0
 10
-285.1096
 20
-310.9288
 30
0.0
 10
-285.0909
 20
-310.9565
 30
0.0
 10
-285.0853
 20
-310.9873
 30
0.0
 10
-285.0928
 20
-311.0197
 30
0.0
 10
-285.0928
 20
-311.0197
 30
0.0
 10
-285.2125
 20
-311.5441
 30
0.0
 10
-285.3508
 20
-312.7904
 30
0.0
 10
-285.362
 20
-314.5557
 30
0.0
 10
-285.362
 20
-314.5557
 30
0.0
 10
-285.362
 20
-314.5557
 30
0.0
 10
-285.4184
 20
-363.0508
 30
0.0
 10
-285.4184
 20
-363.0508
 30
0.0
 10
-285.4184
 20
-363.0508
 30
0.0
 10
-285.4556
 20
-368.837
 30
0.0
 10
-284.9697
 20
-370.7814
 30
0.0
 10
-284.0506
 20
-370.7377
 30
0.0
  0
SPLINE
  5
48
330
1F
100
AcDbEntity
  8
Layer 1
 62
   250
370
     9
100
AcDbSpline
210
0.0
220
0.0
230
1.0
 70
    11
 71
     3
 72
   260
 73
   256
 74
     0
 42
0.0000000001
 43
0.0000000001
 40
0.0
 40
0.0
 40
0.0
 40
0.0
 40
0.0153846153846154
 40
0.0153846153846154
 40
0.0153846153846154
 40
0.0153846153846154
 40
0.0307692307692308
 40
0.0307692307692308
 40
0.0307692307692308
 40
0.0307692307692308
 40
0.0461538461538462
 40
0.0461538461538462
 40
0.0461538461538462
 40
0.0461538461538462
 40
0.0615384615384615
 40
0.0615384615384615
 40
0.0615384615384615
 40
0.0615384615384615
 40
0.0769230769230769
 40
0.0769230769230769
 40
0.0769230769230769
 40
0.0769230769230769
 40
0.0923076923076923
 40
0.0923076923076923
 40
0.0923076923076923
 40
0.0923076923076923
 40
0.1076923076923077
 40
0.1076923076923077
 40
0.1076923076923077
 40
0.1076923076923077
 40
0.1230769230769231
 40
0.1230769230769231
 40
0.1230769230769231
 40
0.1230769230769231
 40
0.1384615384615385
 40
0.1384615384615385
 40
0.1384615384615385
 40
0.1384615384615385
 40
0.1538461538461539
 40
0.1538461538461539
 40
0.1538461538461539
 40
0.1538461538461539
 40
0.1692307692307692
 40
0.1692307692307692
 40
0.1692307692307692
 40
0.1692307692307692
 40
0.1846153846153846
 40
0.1846153846153846
 40
0.1846153846153846
 40
0.1846153846153846
 40
0.2
 40
0.2
 40
0.2
 40
0.2
 40
0.2153846153846154
 40
0.2153846153846154
 40
0.2153846153846154
 40
0.2153846153846154
 40
0.2307692307692308
 40
0.2307692307692308
 40
0.2307692307692308
 40
0.2307692307692308
 40
0.2461538461538462
 40
0.2461538461538462
 40
0.2461538461538462
 40
0.2461538461538462
 40
0.2615384615384616
 40
0.2615384615384616
 40
0.2615384615384616
 40
0.2615384615384616
 40
0.2769230769230769
 40
0.2769230769230769
 40
0.2769230769230769
 40
0.2769230769230769
 40
0.2923076923076923
 40
0.2923076923076923
 40
0.2923076923076923
 40
0.2923076923076923
 40
0.3076923076923077
 40
0.3076923076923077
 40
0.3076923076923077
 40
0.3076923076923077
 40
0.3230769230769231
 40
0.3230769230769231
 40
0.3230769230769231
 40
0.3230769230769231
 40
0.3384615384615385
 40
0.3384615384615385
 40
0.3384615384615385
 40
0.3384615384615385
 40
0.3538461538461539
 40
0.3538461538461539
 40
0.3538461538461539
 40
0.3538461538461539
 40
0.3692307692307693
 40
0.3692307692307693
 40
0.3692307692307693
 40
0.3692307692307693
 40
0.3846153846153846
 40
0.3846153846153846
 40
0.3846153846153846
 40
0.3846153846153846
 40
0.4
 40
0.4
 40
0.4
 40
0.4
 40
0.4153846153846154
 40
0.4153846153846154
 40
0.4153846153846154
 40
0.4153846153846154
 40
0.4307692307692308
 40
0.4307692307692308
 40
0.4307692307692308
 40
0.4307692307692308
 40
0.4461538461538462
 40
0.4461538461538462
 40
0.4461538461538462
 40
0.4461538461538462
 40
0.4615384615384616
 40
0.4615384615384616
 40
0.4615384615384616
 40
0.4615384615384616
 40
0.4769230769230769
 40
0.4769230769230769
 40
0.4769230769230769
 40
0.4769230769230769
 40
0.4923076923076923
 40
0.4923076923076923
 40
0.4923076923076923
 40
0.4923076923076923
 40
0.5076923076923077
 40
0.5076923076923077
 40
0.5076923076923077
 40
0.5076923076923077
 40
0.5230769230769231
 40
0.5230769230769231
 40
0.5230769230769231
 40
0.5230769230769231
 40
0.5384615384615384
 40
0.5384615384615384
 40
0.5384615384615384
 40
0.5384615384615384
 40
0.5538461538461539
 40
0.5538461538461539
 40
0.5538461538461539
 40
0.5538461538461539
 40
0.5692307692307692
 40
0.5692307692307692
 40
0.5692307692307692
 40
0.5692307692307692
 40
0.5846153846153846
 40
0.5846153846153846
 40
0.5846153846153846
 40
0.5846153846153846
 40
0.6
 40
0.6
 40
0.6
 40
0.6
 40
0.6153846153846154
 40
0.6153846153846154
 40
0.6153846153846154
 40
0.6153846153846154
 40
0.6307692307692307
 40
0.6307692307692307
 40
0.6307692307692307
 40
0.6307692307692307
 40
0.6461538461538462
 40
0.6461538461538462
 40
0.6461538461538462
 40
0.6461538461538462
 40
0.6615384615384615
 40
0.6615384615384615
 40
0.6615384615384615
 40
0.6615384615384615
 40
0.676923076923077
 40
0.676923076923077
 40
0.676923076923077
 40
0.676923076923077
 40
0.6923076923076923
 40
0.6923076923076923
 40
0.6923076923076923
 40
0.6923076923076923
 40
0.7076923076923077
 40
0.7076923076923077
 40
0.7076923076923077
 40
0.7076923076923077
 40
0.7230769230769231
 40
0.7230769230769231
 40
0.7230769230769231
 40
0.7230769230769231
 40
0.7384615384615385
 40
0.7384615384615385
 40
0.7384615384615385
 40
0.7384615384615385
 40
0.7538461538461538
 40
0.7538461538461538
 40
0.7538461538461538
 40
0.7538461538461538
 40
0.7692307692307693
 40
0.7692307692307693
 40
0.7692307692307693
 40
0.7692307692307693
 40
0.7846153846153846
 40
0.7846153846153846
 40
0.7846153846153846
 40
0.7846153846153846
 40
0.8
 40
0.8
 40
0.8
 40
0.8
 40
0.8153846153846154
 40
0.8153846153846154
 40
0.8153846153846154
 40
0.8153846153846154
 40
0.8307692307692308
 40
0.8307692307692308
 40
0.8307692307692308
 40
0.8307692307692308
 40
0.8461538461538461
 40
0.8461538461538461
 40
0.8461538461538461
 40
0.8461538461538461
 40
0.8615384615384616
 40
0.8615384615384616
 40
0.8615384615384616
 40
0.8615384615384616
 40
0.8769230769230769
 40
0.8769230769230769
 40
0.8769230769230769
 40
0.8769230769230769
 40
0.8923076923076924
 40
0.8923076923076924
 40
0.8923076923076924
 40
0.8923076923076924
 40
0.9076923076923077
 40
0.9076923076923077
 40
0.9076923076923077
 40
0.9076923076923077
 40
0.9230769230769231
 40
0.9230769230769231
 40
0.9230769230769231
 40
0.9230769230769231
 40
0.9384615384615385
 40
0.9384615384615385
 40
0.9384615384615385
 40
0.9384615384615385
 40
0.9538461538461539
 40
0.9538461538461539
 40
0.9538461538461539
 40
0.9538461538461539
 40
0.9692307692307692
 40
0.9692307692307692
 40
0.9692307692307692
 40
0.9692307692307692
 40
1.0
 40
1.0
 40
1.0
 40
1.0
 10
-265.5717
 20
-401.4929
 30
0.0
 10
-263.7796
 20
-407.5329
 30
0.0
 10
-257.3733
 20
-411.3517
 30
0.0
 10
-255.5362
 20
-409.3898
 30
0.0
 10
-255.5362
 20
-409.3898
 30
0.0
 10
-253.294
 20
-406.9944
 30
0.0
 10
-248.2957
 20
-400.119
 30
0.0
 10
-240.7953
 20
-398.1307
 30
0.0
 10
-240.7953
 20
-398.1307
 30
0.0
 10
-240.7564
 20
-398.1203
 30
0.0
 10
-240.7281
 20
-398.0936
 30
0.0
 10
-240.7148
 20
-398.0559
 30
0.0
 10
-240.7148
 20
-398.0559
 30
0.0
 10
-240.7014
 20
-398.0177
 30
0.0
 10
-240.7077
 20
-397.9794
 30
0.0
 10
-240.7317
 20
-397.9471
 30
0.0
 10
-240.7317
 20
-397.9471
 30
0.0
 10
-243.0161
 20
-394.9105
 30
0.0
 10
-245.8393
 20
-392.7698
 30
0.0
 10
-249.2657
 20
-391.1751
 30
0.0
 10
-249.2657
 20
-391.1751
 30
0.0
 10
-249.2946
 20
-391.1615
 30
0.0
 10
-249.3243
 20
-391.1605
 30
0.0
 10
-249.3547
 20
-391.1713
 30
0.0
 10
-249.3547
 20
-391.1713
 30
0.0
 10
-254.536
 20
-393.0396
 30
0.0
 10
-257.8877
 20
-396.4844
 30
0.0
 10
-257.5135
 20
-398.7401
 30
0.0
 10
-257.5135
 20
-398.7401
 30
0.0
 10
-256.9578
 20
-402.0911
 30
0.0
 10
-257.4073
 20
-406.6733
 30
0.0
 10
-259.6945
 20
-405.8411
 30
0.0
 10
-259.6945
 20
-405.8411
 30
0.0
 10
-262.1555
 20
-404.9455
 30
0.0
 10
-263.4445
 20
-403.0449
 30
0.0
 10
-263.7663
 20
-400.8502
 30
0.0
 10
-263.7663
 20
-400.8502
 30
0.0
 10
-263.7663
 20
-400.8502
 30
0.0
 10
-263.7871
 20
-400.6946
 30
0.0
 10
-263.7871
 20
-400.6946
 30
0.0
 10
-263.7871
 20
-400.6946
 30
0.0
 10
-264.6604
 20
-393.7139
 30
0.0
 10
-255.888
 20
-383.9618
 30
0.0
 10
-243.7605
 20
-393.8976
 30
0.0
 10
-243.7605
 20
-393.8976
 30
0.0
 10
-232.5265
 20
-403.1014
 30
0.0
 10
-237.1566
 20
-417.2945
 30
0.0
 10
-247.8636
 20
-423.5741
 30
0.0
 10
-247.8636
 20
-423.5741
 30
0.0
 10
-247.8636
 20
-423.5741
 30
0.0
 10
-247.8783
 20
-423.5825
 30
0.0
 10
-247.8783
 20
-423.5825
 30
0.0
 10
-247.8783
 20
-423.5825
 30
0.0
 10
-247.8789
 20
-423.583
 30
0.0
 10
-247.8796
 20
-423.5831
 30
0.0
 10
-247.8802
 20
-423.5834
 30
0.0
 10
-247.8802
 20
-423.5834
 30
0.0
 10
-270.28
 20
-436.695
 30
0.0
 10
-295.6921
 20
-405.6121
 30
0.0
 10
-280.9229
 20
-382.1991
 30
0.0
 10
-280.9229
 20
-382.1991
 30
0.0
 10
-280.9109
 20
-382.1796
 30
0.0
 10
-280.9049
 20
-382.16
 30
0.0
 10
-280.9049
 20
-382.1368
 30
0.0
 10
-280.9049
 20
-382.1368
 30
0.0
 10
-280.9049
 20
-382.1368
 30
0.0
 10
-281.0097
 20
-319.0636
 30
0.0
 10
-281.0097
 20
-319.0636
 30
0.0
 10
-281.0097
 20
-319.0636
 30
0.0
 10
-281.0094
 20
-319.0193
 30
0.0
 10
-281.0326
 20
-318.9808
 30
0.0
 10
-281.0717
 20
-318.96
 30
0.0
 10
-281.0717
 20
-318.96
 30
0.0
 10
-281.1115
 20
-318.9388
 30
0.0
 10
-281.1561
 20
-318.9419
 30
0.0
 10
-281.1929
 20
-318.9674
 30
0.0
 10
-281.1929
 20
-318.9674
 30
0.0
 10
-282.3189
 20
-319.7479
 30
0.0
 10
-283.7123
 20
-313.6175
 30
0.0
 10
-283.5025
 20
-316.6481
 30
0.0
 10
-283.5025
 20
-316.6481
 30
0.0
 10
-283.502
 20
-316.6509
 30
0.0
 10
-283.502
 20
-316.6536
 30
0.0
 10
-283.502
 20
-316.6565
 30
0.0
 10
-283.502
 20
-316.6565
 30
0.0
 10
-283.502
 20
-316.6565
 30
0.0
 10
-283.3501
 20
-376.1395
 30
0.0
 10
-283.3501
 20
-376.1395
 30
0.0
 10
-283.3501
 20
-376.1395
 30
0.0
 10
-283.3501
 20
-376.1571
 30
0.0
 10
-283.3537
 20
-376.1721
 30
0.0
 10
-283.3609
 20
-376.1881
 30
0.0
 10
-283.3609
 20
-376.1881
 30
0.0
 10
-290.0153
 20
-390.7139
 30
0.0
 10
-289.6129
 20
-409.0932
 30
0.0
 10
-278.455
 20
-421.5918
 30
0.0
 10
-278.455
 20
-421.5918
 30
0.0
 10
-269.8847
 20
-431.1921
 30
0.0
 10
-257.3463
 20
-432.2158
 30
0.0
 10
-246.5704
 20
-426.2647
 30
0.0
 10
-246.5704
 20
-426.2647
 30
0.0
 10
-246.5704
 20
-426.2647
 30
0.0
 10
-246.5287
 20
-426.2413
 30
0.0
 10
-246.5287
 20
-426.2413
 30
0.0
 10
-246.5287
 20
-426.2413
 30
0.0
 10
-240.5258
 20
-422.9158
 30
0.0
 10
-235.8449
 20
-418.1422
 30
0.0
 10
-232.388
 20
-414.8111
 30
0.0
 10
-232.388
 20
-414.8111
 30
0.0
 10
-227.611
 20
-410.2078
 30
0.0
 10
-220.5439
 20
-411.9808
 30
0.0
 10
-225.053
 20
-416.6421
 30
0.0
 10
-225.053
 20
-416.6421
 30
0.0
 10
-225.0779
 20
-416.668
 30
0.0
 10
-225.0895
 20
-416.7002
 30
0.0
 10
-225.0858
 20
-416.7358
 30
0.0
 10
-225.0858
 20
-416.7358
 30
0.0
 10
-225.0822
 20
-416.7717
 30
0.0
 10
-225.0641
 20
-416.8009
 30
0.0
 10
-225.0346
 20
-416.8209
 30
0.0
 10
-225.0346
 20
-416.8209
 30
0.0
 10
-224.7409
 20
-417.0179
 30
0.0
 10
-224.2942
 20
-417.0631
 30
0.0
 10
-223.9811
 20
-416.847
 30
0.0
 10
-223.9811
 20
-416.847
 30
0.0
 10
-218.9693
 20
-413.3882
 30
0.0
 10
-214.4857
 20
-416.3069
 30
0.0
 10
-214.34
 20
-419.0885
 30
0.0
 10
-214.34
 20
-419.0885
 30
0.0
 10
-214.2003
 20
-421.7574
 30
0.0
 10
-217.5443
 20
-424.5623
 30
0.0
 10
-223.4624
 20
-420.6228
 30
0.0
 10
-223.4624
 20
-420.6228
 30
0.0
 10
-223.8103
 20
-420.3915
 30
0.0
 10
-224.0122
 20
-420.2527
 30
0.0
 10
-224.3975
 20
-420.3368
 30
0.0
 10
-224.3975
 20
-420.3368
 30
0.0
 10
-224.4379
 20
-420.3454
 30
0.0
 10
-224.4684
 20
-420.3719
 30
0.0
 10
-224.4826
 20
-420.4104
 30
0.0
 10
-224.4826
 20
-420.4104
 30
0.0
 10
-224.4967
 20
-420.4492
 30
0.0
 10
-224.4905
 20
-420.4891
 30
0.0
 10
-224.4656
 20
-420.5218
 30
0.0
 10
-224.4656
 20
-420.5218
 30
0.0
 10
-220.8441
 20
-425.3094
 30
0.0
 10
-233.2248
 20
-431.5325
 30
0.0
 10
-216.036
 20
-431.1482
 30
0.0
 10
-216.036
 20
-431.1482
 30
0.0
 10
-205.6713
 20
-430.9165
 30
0.0
 10
-213.9336
 20
-425.58
 30
0.0
 10
-209.387
 20
-424.0482
 30
0.0
 10
-209.387
 20
-424.0482
 30
0.0
 10
-209.3515
 20
-424.0363
 30
0.0
 10
-209.3165
 20
-424.0413
 30
0.0
 10
-209.2851
 20
-424.0617
 30
0.0
 10
-209.2851
 20
-424.0617
 30
0.0
 10
-203.2338
 20
-428.032
 30
0.0
 10
-188.9966
 20
-435.0336
 30
0.0
 10
-183.2976
 20
-427.2818
 30
0.0
 10
-183.2976
 20
-427.2818
 30
0.0
 10
-180.4069
 20
-423.3503
 30
0.0
 10
-181.6071
 20
-417.1928
 30
0.0
 10
-188.3069
 20
-417.0591
 30
0.0
 10
-188.3069
 20
-417.0591
 30
0.0
 10
-189.3425
 20
-417.0295
 30
0.0
 10
-190.6274
 20
-418.3782
 30
0.0
 10
-190.7675
 20
-419.8128
 30
0.0
 10
-190.7675
 20
-419.8128
 30
0.0
 10
-190.9238
 20
-421.4117
 30
0.0
 10
-189.7944
 20
-423.0857
 30
0.0
 10
-188.1343
 20
-422.4136
 30
0.0
 10
-188.1343
 20
-422.4136
 30
0.0
 10
-183.4298
 20
-420.5089
 30
0.0
 10
-182.2169
 20
-439.2892
 30
0.0
 10
-208.6368
 20
-420.1241
 30
0.0
 10
-208.6368
 20
-420.1241
 30
0.0
 10
-220.0878
 20
-411.8175
 30
0.0
 10
-229.9201
 20
-397.1094
 30
0.0
 10
-233.7039
 20
-405.8506
 30
0.0
 10
-233.7039
 20
-405.8506
 30
0.0
 10
-233.7236
 20
-405.8975
 30
0.0
 10
-233.7686
 20
-405.9256
 30
0.0
 10
-233.8193
 20
-405.9216
 30
0.0
 10
-233.8193
 20
-405.9216
 30
0.0
 10
-233.8699
 20
-405.9183
 30
0.0
 10
-233.9103
 20
-405.8844
 30
0.0
 10
-233.9236
 20
-405.8355
 30
0.0
 10
-233.9236
 20
-405.8355
 30
0.0
 10
-237.4041
 20
-392.9188
 30
0.0
 10
-248.8758
 20
-388.2665
 30
0.0
 10
-255.6826
 20
-387.9585
 30
0.0
 10
-255.6826
 20
-387.9585
 30
0.0
 10
-268.3167
 20
-387.386
 30
0.0
 10
-276.4974
 20
-386.6586
 30
0.0
 10
-276.8839
 20
-362.2826
 30
0.0
 10
-276.8839
 20
-362.2826
 30
0.0
 10
-276.9307
 20
-359.3338
 30
0.0
 10
-278.495
 20
-362.5248
 30
0.0
 10
-280.2734
 20
-365.7956
 30
0.0
 10
-280.2734
 20
-365.7956
 30
0.0
 10
-280.2833
 20
-365.8135
 30
0.0
 10
-280.2879
 20
-365.8308
 30
0.0
 10
-280.2879
 20
-365.8514
 30
0.0
 10
-280.2879
 20
-365.8514
 30
0.0
 10
-280.2879
 20
-365.8514
 30
0.0
 10
-280.2951
 20
-369.7084
 30
0.0
 10
-280.2951
 20
-369.7084
 30
0.0
 10
-280.2951
 20
-369.7084
 30
0.0
 10
-280.2951
 20
-369.7498
 30
0.0
 10
-280.2758
 20
-369.7854
 30
0.0
 10
-280.2408
 20
-369.8078
 30
0.0
 10
-280.2408
 20
-369.8078
 30
0.0
 10
-280.2057
 20
-369.8298
 30
0.0
 10
-280.1651
 20
-369.8324
 30
0.0
 10
-280.128
 20
-369.8144
 30
0.0
 10
-280.128
 20
-369.8144
 30
0.0
 10
-278.7603
 20
-369.1637
 30
0.0
 10
-277.8588
 20
-370.773
 30
0.0
 10
-278.2608
 20
-378.4103
 30
0.0
 10
-278.2608
 20
-378.4103
 30
0.0
 10
-278.5187
 20
-383.3137
 30
0.0
 10
-276.7606
 20
-386.567
 30
0.0
 10
-273.4387
 20
-388.0116
 30
0.0
 10
-273.4387
 20
-388.0116
 30
0.0
 10
-273.4103
 20
-388.0241
 30
0.0
 10
-273.39
 20
-388.0442
 30
0.0
 10
-273.3779
 20
-388.0726
 30
0.0
 10
-273.3779
 20
-388.0726
 30
0.0
 10
-272.7834
 20
-389.4492
 30
0.0
 10
-276.074
 20
-389.2698
 30
0.0
 10
-275.7802
 20
-390.9941
 30
0.0
 10
-275.7802
 20
-390.9941
 30
0.0
 10
-275.7749
 20
-391.0244
 30
0.0
 10
-275.7604
 20
-391.0486
 30
0.0
 10
-275.7363
 20
-391.0672
 30
0.0
 10
-275.7363
 20
-391.0672
 30
0.0
 10
-273.1372
 20
-393.0782
 30
0.0
 10
-269.3344
 20
-393.4521
 30
0.0
 10
-264.1037
 20
-391.5081
 30
0.0
 10
-264.1037
 20
-391.5081
 30
0.0
 10
-264.0554
 20
-391.4904
 30
0.0
 10
-264.0036
 20
-391.5046
 30
0.0
 10
-263.9716
 20
-391.5447
 30
0.0
 10
-263.9716
 20
-391.5447
 30
0.0
 10
-263.9402
 20
-391.5846
 30
0.0
 10
-263.9372
 20
-391.6382
 30
0.0
 10
-263.9648
 20
-391.681
 30
0.0
 10
-263.9648
 20
-391.681
 30
0.0
 10
-266.2024
 20
-395.1559
 30
0.0
 10
-266.4241
 20
-398.5166
 30
0.0
 10
-265.6034
 20
-401.3844
 30
0.0
 10
-265.6034
 20
-401.3844
 30
0.0
 10
-265.6034
 20
-401.3844
 30
0.0
 10
-265.5717
 20
-401.4929
 30
0.0
 10
-265.5717
 20
-401.4929
 30
0.0
  0
SPLINE
  5
49
330
1F
100
AcDbEntity
  8
Layer 1
 62
   250
370
     9
100
AcDbSpline
210
0.0
220
0.0
230
1.0
 70
    11
 71
     3
 72
    40
 73
    36
 74
     0
 42
0.0000000001
 43
0.0000000001
 40
0.0
 40
0.0
 40
0.0
 40
0.0
 40
0.1
 40
0.1
 40
0.1
 40
0.1
 40
0.2
 40
0.2
 40
0.2
 40
0.2
 40
0.3
 40
0.3
 40
0.3
 40
0.3
 40
0.4
 40
0.4
 40
0.4
 40
0.4
 40
0.5
 40
0.5
 40
0.5
 40
0.5
 40
0.6
 40
0.6
 40
0.6
 40
0.6
 40
0.7
 40
0.7
 40
0.7
 40
0.7
 40
0.8
 40
0.8
 40
0.8
 40
0.8
 40
1.0
 40
1.0
 40
1.0
 40
1.0
 10
-237.0755
 20
-397.5914
 30
0.0
 10
-237.1144
 20
-397.5924
 30
0.0
 10
-237.148
 20
-397.5762
 30
0.0
 10
-237.1716
 20
-397.545
 30
0.0
 10
-237.1716
 20
-397.545
 30
0.0
 10
-239.4288
 20
-394.5571
 30
0.0
 10
-242.1513
 20
-392.1754
 30
0.0
 10
-245.4321
 20
-390.3641
 30
0.0
 10
-245.4321
 20
-390.3641
 30
0.0
 10
-245.477
 20
-390.3396
 30
0.0
 10
-245.4998
 20
-390.2915
 30
0.0
 10
-245.4913
 20
-390.2414
 30
0.0
 10
-245.4913
 20
-390.2414
 30
0.0
 10
-245.4825
 20
-390.1913
 30
0.0
 10
-245.4448
 20
-390.1541
 30
0.0
 10
-245.3948
 20
-390.146
 30
0.0
 10
-245.3948
 20
-390.146
 30
0.0
 10
-236.7378
 20
-388.7366
 30
0.0
 10
-225.1447
 20
-392.0622
 30
0.0
 10
-216.4718
 20
-408.6819
 30
0.0
 10
-216.4718
 20
-408.6819
 30
0.0
 10
-216.3969
 20
-408.8254
 30
0.0
 10
-216.3218
 20
-409.0217
 30
0.0
 10
-216.2804
 20
-409.2124
 30
0.0
 10
-216.2804
 20
-409.2124
 30
0.0
 10
-216.2688
 20
-409.2648
 30
0.0
 10
-216.2937
 20
-409.3166
 30
0.0
 10
-216.3413
 20
-409.3412
 30
0.0
 10
-216.3413
 20
-409.3412
 30
0.0
 10
-216.3893
 20
-409.366
 30
0.0
 10
-216.4461
 20
-409.3552
 30
0.0
 10
-216.4821
 20
-409.3149
 30
0.0
 10
-216.4821
 20
-409.3149
 30
0.0
 10
-224.4662
 20
-400.3169
 30
0.0
 10
-231.3578
 20
-397.4394
 30
0.0
 10
-237.0755
 20
-397.5914
 30
0.0
  0
SPLINE
  5
4A
330
1F
100
AcDbEntity
  8
Layer 1
 62
   250
370
     9
100
AcDbSpline
210
0.0
220
0.0
230
1.0
 70
    11
 71
     3
 72
    52
 73
    48
 74
     0
 42
0.0000000001
 43
0.0000000001
 40
0.0
 40
0.0
 40
0.0
 40
0.0
 40
0.0769230769230769
 40
0.0769230769230769
 40
0.0769230769230769
 40
0.0769230769230769
 40
0.1538461538461539
 40
0.1538461538461539
 40
0.1538461538461539
 40
0.1538461538461539
 40
0.2307692307692308
 40
0.2307692307692308
 40
0.2307692307692308
 40
0.2307692307692308
 40
0.3076923076923077
 40
0.3076923076923077
 40
0.3076923076923077
 40
0.3076923076923077
 40
0.3846153846153846
 40
0.3846153846153846
 40
0.3846153846153846
 40
0.3846153846153846
 40
0.4615384615384616
 40
0.4615384615384616
 40
0.4615384615384616
 40
0.4615384615384616
 40
0.5384615384615384
 40
0.5384615384615384
 40
0.5384615384615384
 40
0.5384615384615384
 40
0.6153846153846154
 40
0.6153846153846154
 40
0.6153846153846154
 40
0.6153846153846154
 40
0.6923076923076923
 40
0.6923076923076923
 40
0.6923076923076923
 40
0.6923076923076923
 40
0.7692307692307693
 40
0.7692307692307693
 40
0.7692307692307693
 40
0.7692307692307693
 40
0.8461538461538461
 40
0.8461538461538461
 40
0.8461538461538461
 40
0.8461538461538461
 40
1.0
 40
1.0
 40
1.0
 40
1.0
 10
378.4053
 20
-370.7377
 30
0.0
 10
378.3722
 20
-370.7361
 30
0.0
 10
378.343
 20
-370.7466
 30
0.0
 10
378.3188
 20
-370.7701
 30
0.0
 10
378.3188
 20
-370.7701
 30
0.0
 10
378.2952
 20
-370.7929
 30
0.0
 10
378.283
 20
-370.8214
 30
0.0
 10
378.283
 20
-370.8547
 30
0.0
 10
378.283
 20
-370.8547
 30
0.0
 10
378.283
 20
-370.8547
 30
0.0
 10
378.2868
 20
-373.8198
 30
0.0
 10
378.2868
 20
-373.8198
 30
0.0
 10
378.2868
 20
-373.8198
 30
0.0
 10
378.2868
 20
-373.8427
 30
0.0
 10
378.2926
 20
-373.8627
 30
0.0
 10
378.3049
 20
-373.8821
 30
0.0
 10
378.3049
 20
-373.8821
 30
0.0
 10
380.0677
 20
-376.6685
 30
0.0
 10
382.1963
 20
-378.6042
 30
0.0
 10
382.1769
 20
-373.3983
 30
0.0
 10
382.1769
 20
-373.3983
 30
0.0
 10
382.1769
 20
-373.3983
 30
0.0
 10
382.1773
 20
-309.7647
 30
0.0
 10
382.1773
 20
-309.7647
 30
0.0
 10
382.1773
 20
-309.7647
 30
0.0
 10
382.1535
 20
-303.4128
 30
0.0
 10
380.7947
 20
-310.6742
 30
0.0
 10
379.5426
 20
-310.8786
 30
0.0
 10
379.5426
 20
-310.8786
 30
0.0
 10
379.5094
 20
-310.884
 30
0.0
 10
379.4829
 20
-310.9007
 30
0.0
 10
379.4643
 20
-310.9288
 30
0.0
 10
379.4643
 20
-310.9288
 30
0.0
 10
379.4456
 20
-310.9565
 30
0.0
 10
379.4399
 20
-310.9873
 30
0.0
 10
379.4475
 20
-311.0197
 30
0.0
 10
379.4475
 20
-311.0197
 30
0.0
 10
379.5672
 20
-311.5441
 30
0.0
 10
379.7055
 20
-312.7904
 30
0.0
 10
379.7167
 20
-314.5557
 30
0.0
 10
379.7167
 20
-314.5557
 30
0.0
 10
379.7167
 20
-314.5557
 30
0.0
 10
379.7731
 20
-363.0508
 30
0.0
 10
379.7731
 20
-363.0508
 30
0.0
 10
379.7731
 20
-363.0508
 30
0.0
 10
379.8103
 20
-368.837
 30
0.0
 10
379.3244
 20
-370.7814
 30
0.0
 10
378.4053
 20
-370.7377
 30
0.0
  0
SPLINE
  5
4B
330
1F
100
AcDbEntity
  8
Layer 1
 62
   250
370
     9
100
AcDbSpline
210
0.0
220
0.0
230
1.0
 70
    11
 71
     3
 72
   260
 73
   256
 74
     0
 42
0.0000000001
 43
0.0000000001
 40
0.0
 40
0.0
 40
0.0
 40
0.0
 40
0.0153846153846154
 40
0.0153846153846154
 40
0.0153846153846154
 40
0.0153846153846154
 40
0.0307692307692308
 40
0.0307692307692308
 40
0.0307692307692308
 40
0.0307692307692308
 40
0.0461538461538462
 40
0.0461538461538462
 40
0.0461538461538462
 40
0.0461538461538462
 40
0.0615384615384615
 40
0.0615384615384615
 40
0.0615384615384615
 40
0.0615384615384615
 40
0.0769230769230769
 40
0.0769230769230769
 40
0.0769230769230769
 40
0.0769230769230769
 40
0.0923076923076923
 40
0.0923076923076923
 40
0.0923076923076923
 40
0.0923076923076923
 40
0.1076923076923077
 40
0.1076923076923077
 40
0.1076923076923077
 40
0.1076923076923077
 40
0.1230769230769231
 40
0.1230769230769231
 40
0.1230769230769231
 40
0.1230769230769231
 40
0.1384615384615385
 40
0.1384615384615385
 40
0.1384615384615385
 40
0.1384615384615385
 40
0.1538461538461539
 40
0.1538461538461539
 40
0.1538461538461539
 40
0.1538461538461539
 40
0.1692307692307692
 40
0.1692307692307692
 40
0.1692307692307692
 40
0.1692307692307692
 40
0.1846153846153846
 40
0.1846153846153846
 40
0.1846153846153846
 40
0.1846153846153846
 40
0.2
 40
0.2
 40
0.2
 40
0.2
 40
0.2153846153846154
 40
0.2153846153846154
 40
0.2153846153846154
 40
0.2153846153846154
 40
0.2307692307692308
 40
0.2307692307692308
 40
0.2307692307692308
 40
0.2307692307692308
 40
0.2461538461538462
 40
0.2461538461538462
 40
0.2461538461538462
 40
0.2461538461538462
 40
0.2615384615384616
 40
0.2615384615384616
 40
0.2615384615384616
 40
0.2615384615384616
 40
0.2769230769230769
 40
0.2769230769230769
 40
0.2769230769230769
 40
0.2769230769230769
 40
0.2923076923076923
 40
0.2923076923076923
 40
0.2923076923076923
 40
0.2923076923076923
 40
0.3076923076923077
 40
0.3076923076923077
 40
0.3076923076923077
 40
0.3076923076923077
 40
0.3230769230769231
 40
0.3230769230769231
 40
0.3230769230769231
 40
0.3230769230769231
 40
0.3384615384615385
 40
0.3384615384615385
 40
0.3384615384615385
 40
0.3384615384615385
 40
0.3538461538461539
 40
0.3538461538461539
 40
0.3538461538461539
 40
0.3538461538461539
 40
0.3692307692307693
 40
0.3692307692307693
 40
0.3692307692307693
 40
0.3692307692307693
 40
0.3846153846153846
 40
0.3846153846153846
 40
0.3846153846153846
 40
0.3846153846153846
 40
0.4
 40
0.4
 40
0.4
 40
0.4
 40
0.4153846153846154
 40
0.4153846153846154
 40
0.4153846153846154
 40
0.4153846153846154
 40
0.4307692307692308
 40
0.4307692307692308
 40
0.4307692307692308
 40
0.4307692307692308
 40
0.4461538461538462
 40
0.4461538461538462
 40
0.4461538461538462
 40
0.4461538461538462
 40
0.4615384615384616
 40
0.4615384615384616
 40
0.4615384615384616
 40
0.4615384615384616
 40
0.4769230769230769
 40
0.4769230769230769
 40
0.4769230769230769
 40
0.4769230769230769
 40
0.4923076923076923
 40
0.4923076923076923
 40
0.4923076923076923
 40
0.4923076923076923
 40
0.5076923076923077
 40
0.5076923076923077
 40
0.5076923076923077
 40
0.5076923076923077
 40
0.5230769230769231
 40
0.5230769230769231
 40
0.5230769230769231
 40
0.5230769230769231
 40
0.5384615384615384
 40
0.5384615384615384
 40
0.5384615384615384
 40
0.5384615384615384
 40
0.5538461538461539
 40
0.5538461538461539
 40
0.5538461538461539
 40
0.5538461538461539
 40
0.5692307692307692
 40
0.5692307692307692
 40
0.5692307692307692
 40
0.5692307692307692
 40
0.5846153846153846
 40
0.5846153846153846
 40
0.5846153846153846
 40
0.5846153846153846
 40
0.6
 40
0.6
 40
0.6
 40
0.6
 40
0.6153846153846154
 40
0.6153846153846154
 40
0.6153846153846154
 40
0.6153846153846154
 40
0.6307692307692307
 40
0.6307692307692307
 40
0.6307692307692307
 40
0.6307692307692307
 40
0.6461538461538462
 40
0.6461538461538462
 40
0.6461538461538462
 40
0.6461538461538462
 40
0.6615384615384615
 40
0.6615384615384615
 40
0.6615384615384615
 40
0.6615384615384615
 40
0.676923076923077
 40
0.676923076923077
 40
0.676923076923077
 40
0.676923076923077
 40
0.6923076923076923
 40
0.6923076923076923
 40
0.6923076923076923
 40
0.6923076923076923
 40
0.7076923076923077
 40
0.7076923076923077
 40
0.7076923076923077
 40
0.7076923076923077
 40
0.7230769230769231
 40
0.7230769230769231
 40
0.7230769230769231
 40
0.7230769230769231
 40
0.7384615384615385
 40
0.7384615384615385
 40
0.7384615384615385
 40
0.7384615384615385
 40
0.7538461538461538
 40
0.7538461538461538
 40
0.7538461538461538
 40
0.7538461538461538
 40
0.7692307692307693
 40
0.7692307692307693
 40
0.7692307692307693
 40
0.7692307692307693
 40
0.7846153846153846
 40
0.7846153846153846
 40
0.7846153846153846
 40
0.7846153846153846
 40
0.8
 40
0.8
 40
0.8
 40
0.8
 40
0.8153846153846154
 40
0.8153846153846154
 40
0.8153846153846154
 40
0.8153846153846154
 40
0.8307692307692308
 40
0.8307692307692308
 40
0.8307692307692308
 40
0.8307692307692308
 40
0.8461538461538461
 40
0.8461538461538461
 40
0.8461538461538461
 40
0.8461538461538461
 40
0.8615384615384616
 40
0.8615384615384616
 40
0.8615384615384616
 40
0.8615384615384616
 40
0.8769230769230769
 40
0.8769230769230769
 40
0.8769230769230769
 40
0.8769230769230769
 40
0.8923076923076924
 40
0.8923076923076924
 40
0.8923076923076924
 40
0.8923076923076924
 40
0.9076923076923077
 40
0.9076923076923077
 40
0.9076923076923077
 40
0.9076923076923077
 40
0.9230769230769231
 40
0.9230769230769231
 40
0.9230769230769231
 40
0.9230769230769231
 40
0.9384615384615385
 40
0.9384615384615385
 40
0.9384615384615385
 40
0.9384615384615385
 40
0.9538461538461539
 40
0.9538461538461539
 40
0.9538461538461539
 40
0.9538461538461539
 40
0.9692307692307692
 40
0.9692307692307692
 40
0.9692307692307692
 40
0.9692307692307692
 40
1.0
 40
1.0
 40
1.0
 40
1.0
 10
359.9263
 20
-401.4929
 30
0.0
 10
358.1342
 20
-407.5329
 30
0.0
 10
351.728
 20
-411.3517
 30
0.0
 10
349.8909
 20
-409.3898
 30
0.0
 10
349.8909
 20
-409.3898
 30
0.0
 10
347.6487
 20
-406.9944
 30
0.0
 10
342.6504
 20
-400.119
 30
0.0
 10
335.15
 20
-398.1307
 30
0.0
 10
335.15
 20
-398.1307
 30
0.0
 10
335.1111
 20
-398.1203
 30
0.0
 10
335.0828
 20
-398.0936
 30
0.0
 10
335.0695
 20
-398.0559
 30
0.0
 10
335.0695
 20
-398.0559
 30
0.0
 10
335.0561
 20
-398.0177
 30
0.0
 10
335.0624
 20
-397.9794
 30
0.0
 10
335.0864
 20
-397.9471
 30
0.0
 10
335.0864
 20
-397.9471
 30
0.0
 10
337.3708
 20
-394.9105
 30
0.0
 10
340.194
 20
-392.7698
 30
0.0
 10
343.6204
 20
-391.1751
 30
0.0
 10
343.6204
 20
-391.1751
 30
0.0
 10
343.6493
 20
-391.1615
 30
0.0
 10
343.679
 20
-391.1605
 30
0.0
 10
343.7094
 20
-391.1713
 30
0.0
 10
343.7094
 20
-391.1713
 30
0.0
 10
348.8907
 20
-393.0396
 30
0.0
 10
352.2424
 20
-396.4844
 30
0.0
 10
351.8682
 20
-398.7401
 30
0.0
 10
351.8682
 20
-398.7401
 30
0.0
 10
351.3125
 20
-402.0911
 30
0.0
 10
351.7619
 20
-406.6733
 30
0.0
 10
354.0492
 20
-405.8411
 30
0.0
 10
354.0492
 20
-405.8411
 30
0.0
 10
356.5101
 20
-404.9455
 30
0.0
 10
357.7992
 20
-403.0449
 30
0.0
 10
358.121
 20
-400.8502
 30
0.0
 10
358.121
 20
-400.8502
 30
0.0
 10
358.121
 20
-400.8502
 30
0.0
 10
358.1418
 20
-400.6946
 30
0.0
 10
358.1418
 20
-400.6946
 30
0.0
 10
358.1418
 20
-400.6946
 30
0.0
 10
359.0151
 20
-393.7139
 30
0.0
 10
350.2427
 20
-383.9618
 30
0.0
 10
338.1152
 20
-393.8976
 30
0.0
 10
338.1152
 20
-393.8976
 30
0.0
 10
326.8812
 20
-403.1014
 30
0.0
 10
331.5113
 20
-417.2945
 30
0.0
 10
342.2183
 20
-423.5741
 30
0.0
 10
342.2183
 20
-423.5741
 30
0.0
 10
342.2183
 20
-423.5741
 30
0.0
 10
342.233
 20
-423.5825
 30
0.0
 10
342.233
 20
-423.5825
 30
0.0
 10
342.233
 20
-423.5825
 30
0.0
 10
342.2336
 20
-423.583
 30
0.0
 10
342.2343
 20
-423.5831
 30
0.0
 10
342.2349
 20
-423.5834
 30
0.0
 10
342.2349
 20
-423.5834
 30
0.0
 10
364.6347
 20
-436.695
 30
0.0
 10
390.0468
 20
-405.6121
 30
0.0
 10
375.2776
 20
-382.1991
 30
0.0
 10
375.2776
 20
-382.1991
 30
0.0
 10
375.2656
 20
-382.1796
 30
0.0
 10
375.2596
 20
-382.16
 30
0.0
 10
375.2596
 20
-382.1368
 30
0.0
 10
375.2596
 20
-382.1368
 30
0.0
 10
375.2596
 20
-382.1368
 30
0.0
 10
375.3644
 20
-319.0636
 30
0.0
 10
375.3644
 20
-319.0636
 30
0.0
 10
375.3644
 20
-319.0636
 30
0.0
 10
375.3641
 20
-319.0193
 30
0.0
 10
375.3873
 20
-318.9808
 30
0.0
 10
375.4263
 20
-318.96
 30
0.0
 10
375.4263
 20
-318.96
 30
0.0
 10
375.4662
 20
-318.9388
 30
0.0
 10
375.5108
 20
-318.9419
 30
0.0
 10
375.5476
 20
-318.9674
 30
0.0
 10
375.5476
 20
-318.9674
 30
0.0
 10
376.6736
 20
-319.7479
 30
0.0
 10
378.067
 20
-313.6175
 30
0.0
 10
377.8572
 20
-316.6481
 30
0.0
 10
377.8572
 20
-316.6481
 30
0.0
 10
377.8567
 20
-316.6509
 30
0.0
 10
377.8567
 20
-316.6536
 30
0.0
 10
377.8567
 20
-316.6565
 30
0.0
 10
377.8567
 20
-316.6565
 30
0.0
 10
377.8567
 20
-316.6565
 30
0.0
 10
377.7048
 20
-376.1395
 30
0.0
 10
377.7048
 20
-376.1395
 30
0.0
 10
377.7048
 20
-376.1395
 30
0.0
 10
377.7048
 20
-376.1571
 30
0.0
 10
377.7084
 20
-376.1721
 30
0.0
 10
377.7156
 20
-376.1881
 30
0.0
 10
377.7156
 20
-376.1881
 30
0.0
 10
384.37
 20
-390.7139
 30
0.0
 10
383.9676
 20
-409.0932
 30
0.0
 10
372.8097
 20
-421.5918
 30
0.0
 10
372.8097
 20
-421.5918
 30
0.0
 10
364.2394
 20
-431.1921
 30
0.0
 10
351.701
 20
-432.2158
 30
0.0
 10
340.9251
 20
-426.2647
 30
0.0
 10
340.9251
 20
-426.2647
 30
0.0
 10
340.9251
 20
-426.2647
 30
0.0
 10
340.8833
 20
-426.2413
 30
0.0
 10
340.8833
 20
-426.2413
 30
0.0
 10
340.8833
 20
-426.2413
 30
0.0
 10
334.8805
 20
-422.9158
 30
0.0
 10
330.1996
 20
-418.1422
 30
0.0
 10
326.7427
 20
-414.8111
 30
0.0
 10
326.7427
 20
-414.8111
 30
0.0
 10
321.9657
 20
-410.2078
 30
0.0
 10
314.8986
 20
-411.9808
 30
0.0
 10
319.4077
 20
-416.6421
 30
0.0
 10
319.4077
 20
-416.6421
 30
0.0
 10
319.4326
 20
-416.668
 30
0.0
 10
319.4442
 20
-416.7002
 30
0.0
 10
319.4405
 20
-416.7358
 30
0.0
 10
319.4405
 20
-416.7358
 30
0.0
 10
319.4369
 20
-416.7717
 30
0.0
 10
319.4188
 20
-416.8009
 30
0.0
 10
319.3893
 20
-416.8209
 30
0.0
 10
319.3893
 20
-416.8209
 30
0.0
 10
319.0956
 20
-417.0179
 30
0.0
 10
318.6489
 20
-417.0631
 30
0.0
 10
318.3358
 20
-416.847
 30
0.0
 10
318.3358
 20
-416.847
 30
0.0
 10
313.324
 20
-413.3882
 30
0.0
 10
308.8404
 20
-416.3069
 30
0.0
 10
308.6947
 20
-419.0885
 30
0.0
 10
308.6947
 20
-419.0885
 30
0.0
 10
308.555
 20
-421.7574
 30
0.0
 10
311.899
 20
-424.5623
 30
0.0
 10
317.8171
 20
-420.6228
 30
0.0
 10
317.8171
 20
-420.6228
 30
0.0
 10
318.165
 20
-420.3915
 30
0.0
 10
318.3669
 20
-420.2527
 30
0.0
 10
318.7522
 20
-420.3368
 30
0.0
 10
318.7522
 20
-420.3368
 30
0.0
 10
318.7926
 20
-420.3454
 30
0.0
 10
318.8231
 20
-420.3719
 30
0.0
 10
318.8373
 20
-420.4104
 30
0.0
 10
318.8373
 20
-420.4104
 30
0.0
 10
318.8514
 20
-420.4492
 30
0.0
 10
318.8452
 20
-420.4891
 30
0.0
 10
318.8203
 20
-420.5218
 30
0.0
 10
318.8203
 20
-420.5218
 30
0.0
 10
315.1988
 20
-425.3094
 30
0.0
 10
327.5794
 20
-431.5325
 30
0.0
 10
310.3907
 20
-431.1482
 30
0.0
 10
310.3907
 20
-431.1482
 30
0.0
 10
300.026
 20
-430.9165
 30
0.0
 10
308.2882
 20
-425.58
 30
0.0
 10
303.7417
 20
-424.0482
 30
0.0
 10
303.7417
 20
-424.0482
 30
0.0
 10
303.7062
 20
-424.0363
 30
0.0
 10
303.6712
 20
-424.0413
 30
0.0
 10
303.6398
 20
-424.0617
 30
0.0
 10
303.6398
 20
-424.0617
 30
0.0
 10
297.5885
 20
-428.032
 30
0.0
 10
283.3513
 20
-435.0336
 30
0.0
 10
277.6523
 20
-427.2818
 30
0.0
 10
277.6523
 20
-427.2818
 30
0.0
 10
274.7616
 20
-423.3503
 30
0.0
 10
275.9618
 20
-417.1928
 30
0.0
 10
282.6616
 20
-417.0591
 30
0.0
 10
282.6616
 20
-417.0591
 30
0.0
 10
283.6972
 20
-417.0295
 30
0.0
 10
284.9821
 20
-418.3782
 30
0.0
 10
285.1222
 20
-419.8128
 30
0.0
 10
285.1222
 20
-419.8128
 30
0.0
 10
285.2785
 20
-421.4117
 30
0.0
 10
284.1491
 20
-423.0857
 30
0.0
 10
282.489
 20
-422.4136
 30
0.0
 10
282.489
 20
-422.4136
 30
0.0
 10
277.7845
 20
-420.5089
 30
0.0
 10
276.5716
 20
-439.2892
 30
0.0
 10
302.9915
 20
-420.1241
 30
0.0
 10
302.9915
 20
-420.1241
 30
0.0
 10
314.4425
 20
-411.8175
 30
0.0
 10
324.2748
 20
-397.1094
 30
0.0
 10
328.0586
 20
-405.8506
 30
0.0
 10
328.0586
 20
-405.8506
 30
0.0
 10
328.0783
 20
-405.8975
 30
0.0
 10
328.1233
 20
-405.9256
 30
0.0
 10
328.174
 20
-405.9216
 30
0.0
 10
328.174
 20
-405.9216
 30
0.0
 10
328.2246
 20
-405.9183
 30
0.0
 10
328.265
 20
-405.8844
 30
0.0
 10
328.2782
 20
-405.8355
 30
0.0
 10
328.2782
 20
-405.8355
 30
0.0
 10
331.7588
 20
-392.9188
 30
0.0
 10
343.2305
 20
-388.2665
 30
0.0
 10
350.0373
 20
-387.9585
 30
0.0
 10
350.0373
 20
-387.9585
 30
0.0
 10
362.6714
 20
-387.386
 30
0.0
 10
370.8521
 20
-386.6586
 30
0.0
 10
371.2386
 20
-362.2826
 30
0.0
 10
371.2386
 20
-362.2826
 30
0.0
 10
371.2854
 20
-359.3338
 30
0.0
 10
372.8497
 20
-362.5248
 30
0.0
 10
374.6281
 20
-365.7956
 30
0.0
 10
374.6281
 20
-365.7956
 30
0.0
 10
374.638
 20
-365.8135
 30
0.0
 10
374.6426
 20
-365.8308
 30
0.0
 10
374.6426
 20
-365.8514
 30
0.0
 10
374.6426
 20
-365.8514
 30
0.0
 10
374.6426
 20
-365.8514
 30
0.0
 10
374.6498
 20
-369.7084
 30
0.0
 10
374.6498
 20
-369.7084
 30
0.0
 10
374.6498
 20
-369.7084
 30
0.0
 10
374.6498
 20
-369.7498
 30
0.0
 10
374.6305
 20
-369.7854
 30
0.0
 10
374.5955
 20
-369.8078
 30
0.0
 10
374.5955
 20
-369.8078
 30
0.0
 10
374.5604
 20
-369.8298
 30
0.0
 10
374.5198
 20
-369.8324
 30
0.0
 10
374.4827
 20
-369.8144
 30
0.0
 10
374.4827
 20
-369.8144
 30
0.0
 10
373.115
 20
-369.1637
 30
0.0
 10
372.2135
 20
-370.773
 30
0.0
 10
372.6155
 20
-378.4103
 30
0.0
 10
372.6155
 20
-378.4103
 30
0.0
 10
372.8734
 20
-383.3137
 30
0.0
 10
371.1153
 20
-386.567
 30
0.0
 10
367.7934
 20
-388.0116
 30
0.0
 10
367.7934
 20
-388.0116
 30
0.0
 10
367.765
 20
-388.0241
 30
0.0
 10
367.7447
 20
-388.0442
 30
0.0
 10
367.7326
 20
-388.0726
 30
0.0
 10
367.7326
 20
-388.0726
 30
0.0
 10
367.1381
 20
-389.4492
 30
0.0
 10
370.4286
 20
-389.2698
 30
0.0
 10
370.1349
 20
-390.9941
 30
0.0
 10
370.1349
 20
-390.9941
 30
0.0
 10
370.1296
 20
-391.0244
 30
0.0
 10
370.1151
 20
-391.0486
 30
0.0
 10
370.091
 20
-391.0672
 30
0.0
 10
370.091
 20
-391.0672
 30
0.0
 10
367.4919
 20
-393.0782
 30
0.0
 10
363.689
 20
-393.4521
 30
0.0
 10
358.4584
 20
-391.5081
 30
0.0
 10
358.4584
 20
-391.5081
 30
0.0
 10
358.41
 20
-391.4904
 30
0.0
 10
358.3583
 20
-391.5046
 30
0.0
 10
358.3263
 20
-391.5447
 30
0.0
 10
358.3263
 20
-391.5447
 30
0.0
 10
358.2949
 20
-391.5846
 30
0.0
 10
358.2918
 20
-391.6382
 30
0.0
 10
358.3195
 20
-391.681
 30
0.0
 10
358.3195
 20
-391.681
 30
0.0
 10
360.5571
 20
-395.1559
 30
0.0
 10
360.7788
 20
-398.5166
 30
0.0
 10
359.958
 20
-401.3844
 30
0.0
 10
359.958
 20
-401.3844
 30
0.0
 10
359.958
 20
-401.3844
 30
0.0
 10
359.9263
 20
-401.4929
 30
0.0
 10
359.9263
 20
-401.4929
 30
0.0
  0
SPLINE
  5
4C
330
1F
100
AcDbEntity
  8
Layer 1
 62
   250
370
     9
100
AcDbSpline
210
0.0
220
0.0
230
1.0
 70
    11
 71
     3
 72
    40
 73
    36
 74
     0
 42
0.0000000001
 43
0.0000000001
 40
0.0
 40
0.0
 40
0.0
 40
0.0
 40
0.1
 40
0.1
 40
0.1
 40
0.1
 40
0.2
 40
0.2
 40
0.2
 40
0.2
 40
0.3
 40
0.3
 40
0.3
 40
0.3
 40
0.4
 40
0.4
 40
0.4
 40
0.4
 40
0.5
 40
0.5
 40
0.5
 40
0.5
 40
0.6
 40
0.6
 40
0.6
 40
0.6
 40
0.7
 40
0.7
 40
0.7
 40
0.7
 40
0.8
 40
0.8
 40
0.8
 40
0.8
 40
1.0
 40
1.0
 40
1.0
 40
1.0
 10
331.4302
 20
-397.5914
 30
0.0
 10
331.4691
 20
-397.5924
 30
0.0
 10
331.5027
 20
-397.5762
 30
0.0
 10
331.5263
 20
-397.545
 30
0.0
 10
331.5263
 20
-397.545
 30
0.0
 10
333.7835
 20
-394.5571
 30
0.0
 10
336.506
 20
-392.1754
 30
0.0
 10
339.7868
 20
-390.3641
 30
0.0
 10
339.7868
 20
-390.3641
 30
0.0
 10
339.8317
 20
-390.3396
 30
0.0
 10
339.8545
 20
-390.2915
 30
0.0
 10
339.846
 20
-390.2414
 30
0.0
 10
339.846
 20
-390.2414
 30
0.0
 10
339.8371
 20
-390.1913
 30
0.0
 10
339.7995
 20
-390.1541
 30
0.0
 10
339.7495
 20
-390.146
 30
0.0
 10
339.7495
 20
-390.146
 30
0.0
 10
331.0925
 20
-388.7366
 30
0.0
 10
319.4994
 20
-392.0622
 30
0.0
 10
310.8265
 20
-408.6819
 30
0.0
 10
310.8265
 20
-408.6819
 30
0.0
 10
310.7515
 20
-408.8254
 30
0.0
 10
310.6765
 20
-409.0217
 30
0.0
 10
310.6351
 20
-409.2124
 30
0.0
 10
310.6351
 20
-409.2124
 30
0.0
 10
310.6235
 20
-409.2648
 30
0.0
 10
310.6484
 20
-409.3166
 30
0.0
 10
310.696
 20
-409.3412
 30
0.0
 10
310.696
 20
-409.3412
 30
0.0
 10
310.744
 20
-409.366
 30
0.0
 10
310.8008
 20
-409.3552
 30
0.0
 10
310.8368
 20
-409.3149
 30
0.0
 10
310.8368
 20
-409.3149
 30
0.0
 10
318.8208
 20
-400.3169
 30
0.0
 10
325.7125
 20
-397.4394
 30
0.0
 10
331.4302
 20
-397.5914
 30
0.0
  0
SPLINE
  5
4D
330
1F
100
AcDbEntity
  8
Layer 1
 62
   250
370
     9
100
AcDbSpline
210
0.0
220
0.0
230
1.0
 70
    11
 71
     3
 72
    52
 73
    48
 74
     0
 42
0.0000000001
 43
0.0000000001
 40
0.0
 40
0.0
 40
0.0
 40
0.0
 40
0.0769230769230769
 40
0.0769230769230769
 40
0.0769230769230769
 40
0.0769230769230769
 40
0.1538461538461539
 40
0.1538461538461539
 40
0.1538461538461539
 40
0.1538461538461539
 40
0.2307692307692308
 40
0.2307692307692308
 40
0.2307692307692308
 40
0.2307692307692308
 40
0.3076923076923077
 40
0.3076923076923077
 40
0.3076923076923077
 40
0.3076923076923077
 40
0.3846153846153846
 40
0.3846153846153846
 40
0.3846153846153846
 40
0.3846153846153846
 40
0.4615384615384616
 40
0.4615384615384616
 40
0.4615384615384616
 40
0.4615384615384616
 40
0.5384615384615384
 40
0.5384615384615384
 40
0.5384615384615384
 40
0.5384615384615384
 40
0.6153846153846154
 40
0.6153846153846154
 40
0.6153846153846154
 40
0.6153846153846154
 40
0.6923076923076923
 40
0.6923076923076923
 40
0.6923076923076923
 40
0.6923076923076923
 40
0.7692307692307693
 40
0.7692307692307693
 40
0.7692307692307693
 40
0.7692307692307693
 40
0.8461538461538461
 40
0.8461538461538461
 40
0.8461538461538461
 40
0.8461538461538461
 40
1.0
 40
1.0
 40
1.0
 40
1.0
 10
378.4053
 20
-121.5927
 30
0.0
 10
378.3722
 20
-121.5944
 30
0.0
 10
378.343
 20
-121.5838
 30
0.0
 10
378.3188
 20
-121.5604
 30
0.0
 10
378.3188
 20
-121.5604
 30
0.0
 10
378.2952
 20
-121.5375
 30
0.0
 10
378.283
 20
-121.509
 30
0.0
 10
378.283
 20
-121.4757
 30
0.0
 10
378.283
 20
-121.4757
 30
0.0
 10
378.283
 20
-121.4757
 30
0.0
 10
378.2868
 20
-118.5106
 30
0.0
 10
378.2868
 20
-118.5106
 30
0.0
 10
378.2868
 20
-118.5106
 30
0.0
 10
378.2868
 20
-118.4877
 30
0.0
 10
378.2926
 20
-118.4677
 30
0.0
 10
378.3049
 20
-118.4483
 30
0.0
 10
378.3049
 20
-118.4483
 30
0.0
 10
380.0677
 20
-115.6619
 30
0.0
 10
382.1963
 20
-113.7262
 30
0.0
 10
382.1769
 20
-118.9321
 30
0.0
 10
382.1769
 20
-118.9321
 30
0.0
 10
382.1769
 20
-118.9321
 30
0.0
 10
382.1773
 20
-182.5657
 30
0.0
 10
382.1773
 20
-182.5657
 30
0.0
 10
382.1773
 20
-182.5657
 30
0.0
 10
382.1535
 20
-188.9176
 30
0.0
 10
380.7947
 20
-181.6562
 30
0.0
 10
379.5426
 20
-181.4518
 30
0.0
 10
379.5426
 20
-181.4518
 30
0.0
 10
379.5094
 20
-181.4464
 30
0.0
 10
379.4829
 20
-181.4297
 30
0.0
 10
379.4643
 20
-181.4016
 30
0.0
 10
379.4643
 20
-181.4016
 30
0.0
 10
379.4456
 20
-181.3739
 30
0.0
 10
379.4399
 20
-181.3431
 30
0.0
 10
379.4475
 20
-181.3107
 30
0.0
 10
379.4475
 20
-181.3107
 30
0.0
 10
379.5672
 20
-180.7864
 30
0.0
 10
379.7055
 20
-179.54
 30
0.0
 10
379.7167
 20
-177.7747
 30
0.0
 10
379.7167
 20
-177.7747
 30
0.0
 10
379.7167
 20
-177.7747
 30
0.0
 10
379.7731
 20
-129.2796
 30
0.0
 10
379.7731
 20
-129.2796
 30
0.0
 10
379.7731
 20
-129.2796
 30
0.0
 10
379.8103
 20
-123.4934
 30
0.0
 10
379.3244
 20
-121.5491
 30
0.0
 10
378.4053
 20
-121.5927
 30
0.0
  0
SPLINE
  5
4E
330
1F
100
AcDbEntity
  8
Layer 1
 62
   250
370
     9
100
AcDbSpline
210
0.0
220
0.0
230
1.0
 70
    11
 71
     3
 72
   260
 73
   256
 74
     0
 42
0.0000000001
 43
0.0000000001
 40
0.0
 40
0.0
 40
0.0
 40
0.0
 40
0.0153846153846154
 40
0.0153846153846154
 40
0.0153846153846154
 40
0.0153846153846154
 40
0.0307692307692308
 40
0.0307692307692308
 40
0.0307692307692308
 40
0.0307692307692308
 40
0.0461538461538462
 40
0.0461538461538462
 40
0.0461538461538462
 40
0.0461538461538462
 40
0.0615384615384615
 40
0.0615384615384615
 40
0.0615384615384615
 40
0.0615384615384615
 40
0.0769230769230769
 40
0.0769230769230769
 40
0.0769230769230769
 40
0.0769230769230769
 40
0.0923076923076923
 40
0.0923076923076923
 40
0.0923076923076923
 40
0.0923076923076923
 40
0.1076923076923077
 40
0.1076923076923077
 40
0.1076923076923077
 40
0.1076923076923077
 40
0.1230769230769231
 40
0.1230769230769231
 40
0.1230769230769231
 40
0.1230769230769231
 40
0.1384615384615385
 40
0.1384615384615385
 40
0.1384615384615385
 40
0.1384615384615385
 40
0.1538461538461539
 40
0.1538461538461539
 40
0.1538461538461539
 40
0.1538461538461539
 40
0.1692307692307692
 40
0.1692307692307692
 40
0.1692307692307692
 40
0.1692307692307692
 40
0.1846153846153846
 40
0.1846153846153846
 40
0.1846153846153846
 40
0.1846153846153846
 40
0.2
 40
0.2
 40
0.2
 40
0.2
 40
0.2153846153846154
 40
0.2153846153846154
 40
0.2153846153846154
 40
0.2153846153846154
 40
0.2307692307692308
 40
0.2307692307692308
 40
0.2307692307692308
 40
0.2307692307692308
 40
0.2461538461538462
 40
0.2461538461538462
 40
0.2461538461538462
 40
0.2461538461538462
 40
0.2615384615384616
 40
0.2615384615384616
 40
0.2615384615384616
 40
0.2615384615384616
 40
0.2769230769230769
 40
0.2769230769230769
 40
0.2769230769230769
 40
0.2769230769230769
 40
0.2923076923076923
 40
0.2923076923076923
 40
0.2923076923076923
 40
0.2923076923076923
 40
0.3076923076923077
 40
0.3076923076923077
 40
0.3076923076923077
 40
0.3076923076923077
 40
0.3230769230769231
 40
0.3230769230769231
 40
0.3230769230769231
 40
0.3230769230769231
 40
0.3384615384615385
 40
0.3384615384615385
 40
0.3384615384615385
 40
0.3384615384615385
 40
0.3538461538461539
 40
0.3538461538461539
 40
0.3538461538461539
 40
0.3538461538461539
 40
0.3692307692307693
 40
0.3692307692307693
 40
0.3692307692307693
 40
0.3692307692307693
 40
0.3846153846153846
 40
0.3846153846153846
 40
0.3846153846153846
 40
0.3846153846153846
 40
0.4
 40
0.4
 40
0.4
 40
0.4
 40
0.4153846153846154
 40
0.4153846153846154
 40
0.4153846153846154
 40
0.4153846153846154
 40
0.4307692307692308
 40
0.4307692307692308
 40
0.4307692307692308
 40
0.4307692307692308
 40
0.4461538461538462
 40
0.4461538461538462
 40
0.4461538461538462
 40
0.4461538461538462
 40
0.4615384615384616
 40
0.4615384615384616
 40
0.4615384615384616
 40
0.4615384615384616
 40
0.4769230769230769
 40
0.4769230769230769
 40
0.4769230769230769
 40
0.4769230769230769
 40
0.4923076923076923
 40
0.4923076923076923
 40
0.4923076923076923
 40
0.4923076923076923
 40
0.5076923076923077
 40
0.5076923076923077
 40
0.5076923076923077
 40
0.5076923076923077
 40
0.5230769230769231
 40
0.5230769230769231
 40
0.5230769230769231
 40
0.5230769230769231
 40
0.5384615384615384
 40
0.5384615384615384
 40
0.5384615384615384
 40
0.5384615384615384
 40
0.5538461538461539
 40
0.5538461538461539
 40
0.5538461538461539
 40
0.5538461538461539
 40
0.5692307692307692
 40
0.5692307692307692
 40
0.5692307692307692
 40
0.5692307692307692
 40
0.5846153846153846
 40
0.5846153846153846
 40
0.5846153846153846
 40
0.5846153846153846
 40
0.6
 40
0.6
 40
0.6
 40
0.6
 40
0.6153846153846154
 40
0.6153846153846154
 40
0.6153846153846154
 40
0.6153846153846154
 40
0.6307692307692307
 40
0.6307692307692307
 40
0.6307692307692307
 40
0.6307692307692307
 40
0.6461538461538462
 40
0.6461538461538462
 40
0.6461538461538462
 40
0.6461538461538462
 40
0.6615384615384615
 40
0.6615384615384615
 40
0.6615384615384615
 40
0.6615384615384615
 40
0.676923076923077
 40
0.676923076923077
 40
0.676923076923077
 40
0.676923076923077
 40
0.6923076923076923
 40
0.6923076923076923
 40
0.6923076923076923
 40
0.6923076923076923
 40
0.7076923076923077
 40
0.7076923076923077
 40
0.7076923076923077
 40
0.7076923076923077
 40
0.7230769230769231
 40
0.7230769230769231
 40
0.7230769230769231
 40
0.7230769230769231
 40
0.7384615384615385
 40
0.7384615384615385
 40
0.7384615384615385
 40
0.7384615384615385
 40
0.7538461538461538
 40
0.7538461538461538
 40
0.7538461538461538
 40
0.7538461538461538
 40
0.7692307692307693
 40
0.7692307692307693
 40
0.7692307692307693
 40
0.7692307692307693
 40
0.7846153846153846
 40
0.7846153846153846
 40
0.7846153846153846
 40
0.7846153846153846
 40
0.8
 40
0.8
 40
0.8
 40
0.8
 40
0.8153846153846154
 40
0.8153846153846154
 40
0.8153846153846154
 40
0.8153846153846154
 40
0.8307692307692308
 40
0.8307692307692308
 40
0.8307692307692308
 40
0.8307692307692308
 40
0.8461538461538461
 40
0.8461538461538461
 40
0.8461538461538461
 40
0.8461538461538461
 40
0.8615384615384616
 40
0.8615384615384616
 40
0.8615384615384616
 40
0.8615384615384616
 40
0.8769230769230769
 40
0.8769230769230769
 40
0.8769230769230769
 40
0.8769230769230769
 40
0.8923076923076924
 40
0.8923076923076924
 40
0.8923076923076924
 40
0.8923076923076924
 40
0.9076923076923077
 40
0.9076923076923077
 40
0.9076923076923077
 40
0.9076923076923077
 40
0.9230769230769231
 40
0.9230769230769231
 40
0.9230769230769231
 40
0.9230769230769231
 40
0.9384615384615385
 40
0.9384615384615385
 40
0.9384615384615385
 40
0.9384615384615385
 40
0.9538461538461539
 40
0.9538461538461539
 40
0.9538461538461539
 40
0.9538461538461539
 40
0.9692307692307692
 40
0.9692307692307692
 40
0.9692307692307692
 40
0.9692307692307692
 40
1.0
 40
1.0
 40
1.0
 40
1.0
 10
359.9263
 20
-90.8376
 30
0.0
 10
358.1342
 20
-84.7975
 30
0.0
 10
351.728
 20
-80.9787
 30
0.0
 10
349.8909
 20
-82.9406
 30
0.0
 10
349.8909
 20
-82.9406
 30
0.0
 10
347.6487
 20
-85.336
 30
0.0
 10
342.6504
 20
-92.2114
 30
0.0
 10
335.15
 20
-94.1997
 30
0.0
 10
335.15
 20
-94.1997
 30
0.0
 10
335.1111
 20
-94.2101
 30
0.0
 10
335.0828
 20
-94.2368
 30
0.0
 10
335.0695
 20
-94.2745
 30
0.0
 10
335.0695
 20
-94.2745
 30
0.0
 10
335.0561
 20
-94.3127
 30
0.0
 10
335.0624
 20
-94.351
 30
0.0
 10
335.0864
 20
-94.3833
 30
0.0
 10
335.0864
 20
-94.3833
 30
0.0
 10
337.3708
 20
-97.42
 30
0.0
 10
340.194
 20
-99.5606
 30
0.0
 10
343.6204
 20
-101.1553
 30
0.0
 10
343.6204
 20
-101.1553
 30
0.0
 10
343.6493
 20
-101.1689
 30
0.0
 10
343.679
 20
-101.17
 30
0.0
 10
343.7094
 20
-101.1591
 30
0.0
 10
343.7094
 20
-101.1591
 30
0.0
 10
348.8907
 20
-99.2908
 30
0.0
 10
352.2424
 20
-95.846
 30
0.0
 10
351.8682
 20
-93.5903
 30
0.0
 10
351.8682
 20
-93.5903
 30
0.0
 10
351.3125
 20
-90.2393
 30
0.0
 10
351.7619
 20
-85.6571
 30
0.0
 10
354.0492
 20
-86.4893
 30
0.0
 10
354.0492
 20
-86.4893
 30
0.0
 10
356.5101
 20
-87.3849
 30
0.0
 10
357.7992
 20
-89.2855
 30
0.0
 10
358.121
 20
-91.4802
 30
0.0
 10
358.121
 20
-91.4802
 30
0.0
 10
358.121
 20
-91.4802
 30
0.0
 10
358.1418
 20
-91.6358
 30
0.0
 10
358.1418
 20
-91.6358
 30
0.0
 10
358.1418
 20
-91.6358
 30
0.0
 10
359.0151
 20
-98.6165
 30
0.0
 10
350.2427
 20
-108.3686
 30
0.0
 10
338.1152
 20
-98.4328
 30
0.0
 10
338.1152
 20
-98.4328
 30
0.0
 10
326.8812
 20
-89.229
 30
0.0
 10
331.5113
 20
-75.0359
 30
0.0
 10
342.2183
 20
-68.7563
 30
0.0
 10
342.2183
 20
-68.7563
 30
0.0
 10
342.2183
 20
-68.7563
 30
0.0
 10
342.233
 20
-68.7479
 30
0.0
 10
342.233
 20
-68.7479
 30
0.0
 10
342.233
 20
-68.7479
 30
0.0
 10
342.2336
 20
-68.7474
 30
0.0
 10
342.2343
 20
-68.7473
 30
0.0
 10
342.2349
 20
-68.747
 30
0.0
 10
342.2349
 20
-68.747
 30
0.0
 10
364.6347
 20
-55.6354
 30
0.0
 10
390.0468
 20
-86.7183
 30
0.0
 10
375.2776
 20
-110.1313
 30
0.0
 10
375.2776
 20
-110.1313
 30
0.0
 10
375.2656
 20
-110.1508
 30
0.0
 10
375.2596
 20
-110.1704
 30
0.0
 10
375.2596
 20
-110.1936
 30
0.0
 10
375.2596
 20
-110.1936
 30
0.0
 10
375.2596
 20
-110.1936
 30
0.0
 10
375.3644
 20
-173.2668
 30
0.0
 10
375.3644
 20
-173.2668
 30
0.0
 10
375.3644
 20
-173.2668
 30
0.0
 10
375.3641
 20
-173.3111
 30
0.0
 10
375.3873
 20
-173.3496
 30
0.0
 10
375.4263
 20
-173.3704
 30
0.0
 10
375.4263
 20
-173.3704
 30
0.0
 10
375.4662
 20
-173.3916
 30
0.0
 10
375.5108
 20
-173.3885
 30
0.0
 10
375.5476
 20
-173.363
 30
0.0
 10
375.5476
 20
-173.363
 30
0.0
 10
376.6736
 20
-172.5826
 30
0.0
 10
378.067
 20
-178.7129
 30
0.0
 10
377.8572
 20
-175.6823
 30
0.0
 10
377.8572
 20
-175.6823
 30
0.0
 10
377.8567
 20
-175.6795
 30
0.0
 10
377.8567
 20
-175.6768
 30
0.0
 10
377.8567
 20
-175.6739
 30
0.0
 10
377.8567
 20
-175.6739
 30
0.0
 10
377.8567
 20
-175.6739
 30
0.0
 10
377.7048
 20
-116.1909
 30
0.0
 10
377.7048
 20
-116.1909
 30
0.0
 10
377.7048
 20
-116.1909
 30
0.0
 10
377.7048
 20
-116.1733
 30
0.0
 10
377.7084
 20
-116.1583
 30
0.0
 10
377.7156
 20
-116.1424
 30
0.0
 10
377.7156
 20
-116.1424
 30
0.0
 10
384.37
 20
-101.6165
 30
0.0
 10
383.9676
 20
-83.2372
 30
0.0
 10
372.8097
 20
-70.7386
 30
0.0
 10
372.8097
 20
-70.7386
 30
0.0
 10
364.2394
 20
-61.1383
 30
0.0
 10
351.701
 20
-60.1146
 30
0.0
 10
340.9251
 20
-66.0657
 30
0.0
 10
340.9251
 20
-66.0657
 30
0.0
 10
340.9251
 20
-66.0657
 30
0.0
 10
340.8833
 20
-66.0891
 30
0.0
 10
340.8833
 20
-66.0891
 30
0.0
 10
340.8833
 20
-66.0891
 30
0.0
 10
334.8805
 20
-69.4146
 30
0.0
 10
330.1996
 20
-74.1882
 30
0.0
 10
326.7427
 20
-77.5193
 30
0.0
 10
326.7427
 20
-77.5193
 30
0.0
 10
321.9657
 20
-82.1226
 30
0.0
 10
314.8986
 20
-80.3496
 30
0.0
 10
319.4077
 20
-75.6883
 30
0.0
 10
319.4077
 20
-75.6883
 30
0.0
 10
319.4326
 20
-75.6624
 30
0.0
 10
319.4442
 20
-75.6302
 30
0.0
 10
319.4405
 20
-75.5945
 30
0.0
 10
319.4405
 20
-75.5945
 30
0.0
 10
319.4369
 20
-75.5587
 30
0.0
 10
319.4188
 20
-75.5295
 30
0.0
 10
319.3893
 20
-75.5095
 30
0.0
 10
319.3893
 20
-75.5095
 30
0.0
 10
319.0956
 20
-75.3125
 30
0.0
 10
318.6489
 20
-75.2674
 30
0.0
 10
318.3358
 20
-75.4834
 30
0.0
 10
318.3358
 20
-75.4834
 30
0.0
 10
313.324
 20
-78.9422
 30
0.0
 10
308.8404
 20
-76.0235
 30
0.0
 10
308.6947
 20
-73.2419
 30
0.0
 10
308.6947
 20
-73.2419
 30
0.0
 10
308.555
 20
-70.5731
 30
0.0
 10
311.899
 20
-67.7681
 30
0.0
 10
317.8171
 20
-71.7076
 30
0.0
 10
317.8171
 20
-71.7076
 30
0.0
 10
318.165
 20
-71.9389
 30
0.0
 10
318.3669
 20
-72.0777
 30
0.0
 10
318.7522
 20
-71.9936
 30
0.0
 10
318.7522
 20
-71.9936
 30
0.0
 10
318.7926
 20
-71.985
 30
0.0
 10
318.8231
 20
-71.9585
 30
0.0
 10
318.8373
 20
-71.92
 30
0.0
 10
318.8373
 20
-71.92
 30
0.0
 10
318.8514
 20
-71.8812
 30
0.0
 10
318.8452
 20
-71.8413
 30
0.0
 10
318.8203
 20
-71.8086
 30
0.0
 10
318.8203
 20
-71.8086
 30
0.0
 10
315.1988
 20
-67.021
 30
0.0
 10
327.5794
 20
-60.7979
 30
0.0
 10
310.3907
 20
-61.1822
 30
0.0
 10
310.3907
 20
-61.1822
 30
0.0
 10
300.026
 20
-61.4139
 30
0.0
 10
308.2882
 20
-66.7504
 30
0.0
 10
303.7417
 20
-68.2822
 30
0.0
 10
303.7417
 20
-68.2822
 30
0.0
 10
303.7062
 20
-68.2941
 30
0.0
 10
303.6712
 20
-68.2891
 30
0.0
 10
303.6398
 20
-68.2687
 30
0.0
 10
303.6398
 20
-68.2687
 30
0.0
 10
297.5885
 20
-64.2984
 30
0.0
 10
283.3513
 20
-57.2968
 30
0.0
 10
277.6523
 20
-65.0486
 30
0.0
 10
277.6523
 20
-65.0486
 30
0.0
 10
274.7616
 20
-68.9801
 30
0.0
 10
275.9618
 20
-75.1376
 30
0.0
 10
282.6616
 20
-75.2713
 30
0.0
 10
282.6616
 20
-75.2713
 30
0.0
 10
283.6972
 20
-75.3009
 30
0.0
 10
284.9821
 20
-73.9522
 30
0.0
 10
285.1222
 20
-72.5176
 30
0.0
 10
285.1222
 20
-72.5176
 30
0.0
 10
285.2785
 20
-70.9187
 30
0.0
 10
284.1491
 20
-69.2447
 30
0.0
 10
282.489
 20
-69.9168
 30
0.0
 10
282.489
 20
-69.9168
 30
0.0
 10
277.7845
 20
-71.8214
 30
0.0
 10
276.5716
 20
-53.0412
 30
0.0
 10
302.9915
 20
-72.2063
 30
0.0
 10
302.9915
 20
-72.2063
 30
0.0
 10
314.4425
 20
-80.5129
 30
0.0
 10
324.2748
 20
-95.221
 30
0.0
 10
328.0586
 20
-86.4798
 30
0.0
 10
328.0586
 20
-86.4798
 30
0.0
 10
328.0783
 20
-86.4329
 30
0.0
 10
328.1233
 20
-86.4048
 30
0.0
 10
328.174
 20
-86.4088
 30
0.0
 10
328.174
 20
-86.4088
 30
0.0
 10
328.2246
 20
-86.4121
 30
0.0
 10
328.265
 20
-86.446
 30
0.0
 10
328.2782
 20
-86.4949
 30
0.0
 10
328.2782
 20
-86.4949
 30
0.0
 10
331.7588
 20
-99.4116
 30
0.0
 10
343.2305
 20
-104.0639
 30
0.0
 10
350.0373
 20
-104.372
 30
0.0
 10
350.0373
 20
-104.372
 30
0.0
 10
362.6714
 20
-104.9444
 30
0.0
 10
370.8521
 20
-105.6718
 30
0.0
 10
371.2386
 20
-130.0478
 30
0.0
 10
371.2386
 20
-130.0478
 30
0.0
 10
371.2854
 20
-132.9966
 30
0.0
 10
372.8497
 20
-129.8056
 30
0.0
 10
374.6281
 20
-126.5348
 30
0.0
 10
374.6281
 20
-126.5348
 30
0.0
 10
374.638
 20
-126.5169
 30
0.0
 10
374.6426
 20
-126.4996
 30
0.0
 10
374.6426
 20
-126.479
 30
0.0
 10
374.6426
 20
-126.479
 30
0.0
 10
374.6426
 20
-126.479
 30
0.0
 10
374.6498
 20
-122.622
 30
0.0
 10
374.6498
 20
-122.622
 30
0.0
 10
374.6498
 20
-122.622
 30
0.0
 10
374.6498
 20
-122.5806
 30
0.0
 10
374.6305
 20
-122.545
 30
0.0
 10
374.5955
 20
-122.5226
 30
0.0
 10
374.5955
 20
-122.5226
 30
0.0
 10
374.5604
 20
-122.5006
 30
0.0
 10
374.5198
 20
-122.498
 30
0.0
 10
374.4827
 20
-122.516
 30
0.0
 10
374.4827
 20
-122.516
 30
0.0
 10
373.115
 20
-123.1667
 30
0.0
 10
372.2135
 20
-121.5574
 30
0.0
 10
372.6155
 20
-113.9201
 30
0.0
 10
372.6155
 20
-113.9201
 30
0.0
 10
372.8734
 20
-109.0167
 30
0.0
 10
371.1153
 20
-105.7634
 30
0.0
 10
367.7934
 20
-104.3188
 30
0.0
 10
367.7934
 20
-104.3188
 30
0.0
 10
367.765
 20
-104.3063
 30
0.0
 10
367.7447
 20
-104.2862
 30
0.0
 10
367.7326
 20
-104.2579
 30
0.0
 10
367.7326
 20
-104.2579
 30
0.0
 10
367.1381
 20
-102.8812
 30
0.0
 10
370.4286
 20
-103.0606
 30
0.0
 10
370.1349
 20
-101.3363
 30
0.0
 10
370.1349
 20
-101.3363
 30
0.0
 10
370.1296
 20
-101.306
 30
0.0
 10
370.1151
 20
-101.2819
 30
0.0
 10
370.091
 20
-101.2633
 30
0.0
 10
370.091
 20
-101.2633
 30
0.0
 10
367.4919
 20
-99.2522
 30
0.0
 10
363.689
 20
-98.8783
 30
0.0
 10
358.4584
 20
-100.8223
 30
0.0
 10
358.4584
 20
-100.8223
 30
0.0
 10
358.41
 20
-100.84
 30
0.0
 10
358.3583
 20
-100.8258
 30
0.0
 10
358.3263
 20
-100.7857
 30
0.0
 10
358.3263
 20
-100.7857
 30
0.0
 10
358.2949
 20
-100.7458
 30
0.0
 10
358.2918
 20
-100.6922
 30
0.0
 10
358.3195
 20
-100.6494
 30
0.0
 10
358.3195
 20
-100.6494
 30
0.0
 10
360.5571
 20
-97.1745
 30
0.0
 10
360.7788
 20
-93.8138
 30
0.0
 10
359.958
 20
-90.946
 30
0.0
 10
359.958
 20
-90.946
 30
0.0
 10
359.958
 20
-90.946
 30
0.0
 10
359.9263
 20
-90.8376
 30
0.0
 10
359.9263
 20
-90.8376
 30
0.0
  0
SPLINE
  5
4F
330
1F
100
AcDbEntity
  8
Layer 1
 62
   250
370
     9
100
AcDbSpline
210
0.0
220
0.0
230
1.0
 70
    11
 71
     3
 72
    40
 73
    36
 74
     0
 42
0.0000000001
 43
0.0000000001
 40
0.0
 40
0.0
 40
0.0
 40
0.0
 40
0.1
 40
0.1
 40
0.1
 40
0.1
 40
0.2
 40
0.2
 40
0.2
 40
0.2
 40
0.3
 40
0.3
 40
0.3
 40
0.3
 40
0.4
 40
0.4
 40
0.4
 40
0.4
 40
0.5
 40
0.5
 40
0.5
 40
0.5
 40
0.6
 40
0.6
 40
0.6
 40
0.6
 40
0.7
 40
0.7
 40
0.7
 40
0.7
 40
0.8
 40
0.8
 40
0.8
 40
0.8
 40
1.0
 40
1.0
 40
1.0
 40
1.0
 10
331.4302
 20
-94.739
 30
0.0
 10
331.4691
 20
-94.738
 30
0.0
 10
331.5027
 20
-94.7542
 30
0.0
 10
331.5263
 20
-94.7855
 30
0.0
 10
331.5263
 20
-94.7855
 30
0.0
 10
333.7835
 20
-97.7733
 30
0.0
 10
336.506
 20
-100.155
 30
0.0
 10
339.7868
 20
-101.9663
 30
0.0
 10
339.7868
 20
-101.9663
 30
0.0
 10
339.8317
 20
-101.9908
 30
0.0
 10
339.8545
 20
-102.0389
 30
0.0
 10
339.846
 20
-102.089
 30
0.0
 10
339.846
 20
-102.089
 30
0.0
 10
339.8371
 20
-102.1391
 30
0.0
 10
339.7995
 20
-102.1763
 30
0.0
 10
339.7495
 20
-102.1845
 30
0.0
 10
339.7495
 20
-102.1845
 30
0.0
 10
331.0925
 20
-103.5938
 30
0.0
 10
319.4994
 20
-100.2683
 30
0.0
 10
310.8265
 20
-83.6485
 30
0.0
 10
310.8265
 20
-83.6485
 30
0.0
 10
310.7515
 20
-83.505
 30
0.0
 10
310.6765
 20
-83.3087
 30
0.0
 10
310.6351
 20
-83.118
 30
0.0
 10
310.6351
 20
-83.118
 30
0.0
 10
310.6235
 20
-83.0656
 30
0.0
 10
310.6484
 20
-83.0138
 30
0.0
 10
310.696
 20
-82.9893
 30
0.0
 10
310.696
 20
-82.9893
 30
0.0
 10
310.744
 20
-82.9644
 30
0.0
 10
310.8008
 20
-82.9752
 30
0.0
 10
310.8368
 20
-83.0156
 30
0.0
 10
310.8368
 20
-83.0156
 30
0.0
 10
318.8208
 20
-92.0135
 30
0.0
 10
325.7125
 20
-94.891
 30
0.0
 10
331.4302
 20
-94.739
 30
0.0
  0
SPLINE
  5
50
330
1F
100
AcDbEntity
  8
Layer 1
 62
   250
370
     9
100
AcDbSpline
210
0.0
220
0.0
230
1.0
 70
    11
 71
     3
 72
    56
 73
    52
 74
     0
 42
0.0000000001
 43
0.0000000001
 40
0.0
 40
0.0
 40
0.0
 40
0.0
 40
0.0714285714285714
 40
0.0714285714285714
 40
0.0714285714285714
 40
0.0714285714285714
 40
0.1428571428571428
 40
0.1428571428571428
 40
0.1428571428571428
 40
0.1428571428571428
 40
0.2142857142857143
 40
0.2142857142857143
 40
0.2142857142857143
 40
0.2142857142857143
 40
0.2857142857142857
 40
0.2857142857142857
 40
0.2857142857142857
 40
0.2857142857142857
 40
0.3571428571428572
 40
0.3571428571428572
 40
0.3571428571428572
 40
0.3571428571428572
 40
0.4285714285714285
 40
0.4285714285714285
 40
0.4285714285714285
 40
0.4285714285714285
 40
0.5
 40
0.5
 40
0.5
 40
0.5
 40
0.5714285714285714
 40
0.5714285714285714
 40
0.5714285714285714
 40
0.5714285714285714
 40
0.6428571428571429
 40
0.6428571428571429
 40
0.6428571428571429
 40
0.6428571428571429
 40
0.7142857142857143
 40
0.7142857142857143
 40
0.7142857142857143
 40
0.7142857142857143
 40
0.7857142857142857
 40
0.7857142857142857
 40
0.7857142857142857
 40
0.7857142857142857
 40
0.8571428571428571
 40
0.8571428571428571
 40
0.8571428571428571
 40
0.8571428571428571
 40
1.0
 40
1.0
 40
1.0
 40
1.0
 10
63.58
 20
-265.3122
 30
0.0
 10
63.58
 20
-265.3122
 30
0.0
 10
68.9709
 20
-269.5004
 30
0.0
 10
67.1743
 20
-273.6897
 30
0.0
 10
67.1743
 20
-273.6897
 30
0.0
 10
67.1743
 20
-273.6897
 30
0.0
 10
74.6616
 20
-272.7916
 30
0.0
 10
72.8651
 20
-265.0132
 30
0.0
 10
72.8651
 20
-265.0132
 30
0.0
 10
72.8651
 20
-265.0132
 30
0.0
 10
74.6616
 20
-270.0994
 30
0.0
 10
80.3524
 20
-272.7916
 30
0.0
 10
80.3524
 20
-272.7916
 30
0.0
 10
86.0436
 20
-275.4848
 30
0.0
 10
80.6523
 20
-282.6652
 30
0.0
 10
80.6523
 20
-282.6652
 30
0.0
 10
80.6523
 20
-282.6652
 30
0.0
 10
80.6523
 20
-282.6652
 30
0.0
 10
88.4396
 20
-278.7749
 30
0.0
 10
85.1446
 20
-267.7064
 30
0.0
 10
85.1446
 20
-267.7064
 30
0.0
 10
81.9974
 20
-257.1286
 30
0.0
 10
68.731
 20
-246.8269
 30
0.0
 10
47.1769
 20
-247.4962
 30
0.0
 10
47.1769
 20
-247.4962
 30
0.0
 10
25.6233
 20
-246.8269
 30
0.0
 10
12.3572
 20
-257.1286
 30
0.0
 10
9.209
 20
-267.7064
 30
0.0
 10
9.209
 20
-267.7064
 30
0.0
 10
5.9146
 20
-278.7749
 30
0.0
 10
13.7019
 20
-282.6652
 30
0.0
 10
13.7019
 20
-282.6652
 30
0.0
 10
13.7019
 20
-282.6652
 30
0.0
 10
13.7019
 20
-282.6652
 30
0.0
 10
8.3104
 20
-275.4848
 30
0.0
 10
14.0012
 20
-272.7916
 30
0.0
 10
14.0012
 20
-272.7916
 30
0.0
 10
19.6919
 20
-270.0994
 30
0.0
 10
21.4891
 20
-265.0132
 30
0.0
 10
21.4891
 20
-265.0132
 30
0.0
 10
21.4891
 20
-265.0132
 30
0.0
 10
19.6919
 20
-272.7916
 30
0.0
 10
27.1799
 20
-273.6897
 30
0.0
 10
27.1799
 20
-273.6897
 30
0.0
 10
27.1799
 20
-273.6897
 30
0.0
 10
25.3827
 20
-269.5004
 30
0.0
 10
30.7742
 20
-265.3122
 30
0.0
 10
30.7742
 20
-265.3122
 30
0.0
 10
30.7742
 20
-265.3122
 30
0.0
 10
33.0798
 20
-243.2698
 30
0.0
 10
61.2486
 20
-243.0258
 30
0.0
 10
63.58
 20
-265.3122
 30
0.0
  0
SPLINE
  5
51
330
1F
100
AcDbEntity
  8
Layer 1
 62
   250
370
     9
100
AcDbSpline
210
0.0
220
0.0
230
1.0
 70
    11
 71
     3
 72
    20
 73
    16
 74
     0
 42
0.0000000001
 43
0.0000000001
 40
0.0
 40
0.0
 40
0.0
 40
0.0
 40
0.2
 40
0.2
 40
0.2
 40
0.2
 40
0.4
 40
0.4
 40
0.4
 40
0.4
 40
0.6
 40
0.6
 40
0.6
 40
0.6
 40
1.0
 40
1.0
 40
1.0
 40
1.0
 10
1.4211
 20
-243.4731
 30
0.0
 10
3.0589
 20
-243.4731
 30
0.0
 10
4.3865
 20
-244.7985
 30
0.0
 10
4.3865
 20
-246.4344
 30
0.0
 10
4.3865
 20
-246.4344
 30
0.0
 10
4.387
 20
-248.0702
 30
0.0
 10
3.0589
 20
-249.3957
 30
0.0
 10
1.4211
 20
-249.3957
 30
0.0
 10
1.4211
 20
-249.3957
 30
0.0
 10
-0.216
 20
-249.3957
 30
0.0
 10
-1.5436
 20
-248.0702
 30
0.0
 10
-1.5436
 20
-246.4344
 30
0.0
 10
-1.5436
 20
-246.4344
 30
0.0
 10
-1.5436
 20
-244.7985
 30
0.0
 10
-0.2165
 20
-243.4731
 30
0.0
 10
1.4211
 20
-243.4731
 30
0.0
  0
SPLINE
  5
52
330
1F
100
AcDbEntity
  8
Layer 1
 62
   250
370
     9
100
AcDbSpline
210
0.0
220
0.0
230
1.0
 70
    11
 71
     3
 72
    20
 73
    16
 74
     0
 42
0.0000000001
 43
0.0000000001
 40
0.0
 40
0.0
 40
0.0
 40
0.0
 40
0.2
 40
0.2
 40
0.2
 40
0.2
 40
0.4
 40
0.4
 40
0.4
 40
0.4
 40
0.6
 40
0.6
 40
0.6
 40
0.6
 40
1.0
 40
1.0
 40
1.0
 40
1.0
 10
-64.3226
 20
-246.7632
 30
0.0
 10
-60.4284
 20
-248.8573
 30
0.0
 10
-53.6894
 20
-251.8495
 30
0.0
 10
-50.3948
 20
-250.3534
 30
0.0
 10
-50.3948
 20
-250.3534
 30
0.0
 10
-47.1005
 20
-248.8573
 30
0.0
 10
-41.4093
 20
-246.7632
 30
0.0
 10
-41.4093
 20
-246.7632
 30
0.0
 10
-41.4093
 20
-246.7632
 30
0.0
 10
-41.4093
 20
-246.7632
 30
0.0
 10
-47.1005
 20
-244.6691
 30
0.0
 10
-50.3948
 20
-243.173
 30
0.0
 10
-50.3948
 20
-243.173
 30
0.0
 10
-53.6894
 20
-241.6769
 30
0.0
 10
-60.4284
 20
-244.6691
 30
0.0
 10
-64.3226
 20
-246.7632
 30
0.0
  0
SPLINE
  5
53
330
1F
100
AcDbEntity
  8
Layer 1
 62
   250
370
     9
100
AcDbSpline
210
0.0
220
0.0
230
1.0
 70
    11
 71
     3
 72
    24
 73
    20
 74
     0
 42
0.0000000001
 43
0.0000000001
 40
0.0
 40
0.0
 40
0.0
 40
0.0
 40
0.1666666666666667
 40
0.1666666666666667
 40
0.1666666666666667
 40
0.1666666666666667
 40
0.3333333333333333
 40
0.3333333333333333
 40
0.3333333333333333
 40
0.3333333333333333
 40
0.5
 40
0.5
 40
0.5
 40
0.5
 40
0.6666666666666666
 40
0.6666666666666666
 40
0.6666666666666666
 40
0.6666666666666666
 40
1.0
 40
1.0
 40
1.0
 40
1.0
 10
-39.6121
 20
-244.3702
 30
0.0
 10
-39.6121
 20
-244.3702
 30
0.0
 10
-45.0035
 20
-241.3789
 30
0.0
 10
-43.2069
 20
-235.9936
 30
0.0
 10
-43.2069
 20
-235.9936
 30
0.0
 10
-41.4093
 20
-230.6083
 30
0.0
 10
-39.0129
 20
-235.3946
 30
0.0
 10
-39.0129
 20
-235.3946
 30
0.0
 10
-39.0129
 20
-235.3946
 30
0.0
 10
-39.0129
 20
-235.3946
 30
0.0
 10
-38.7136
 20
-230.0093
 30
0.0
 10
-43.8056
 20
-230.3083
 30
0.0
 10
-43.8056
 20
-230.3083
 30
0.0
 10
-48.8977
 20
-230.6083
 30
0.0
 10
-49.7957
 20
-241.6769
 30
0.0
 10
-41.1099
 20
-245.2671
 30
0.0
 10
-41.1099
 20
-245.2671
 30
0.0
 10
-41.1099
 20
-245.2671
 30
0.0
 10
-39.6121
 20
-244.3702
 30
0.0
 10
-39.6121
 20
-244.3702
 30
0.0
  0
SPLINE
  5
54
330
1F
100
AcDbEntity
  8
Layer 1
 62
   250
370
     9
100
AcDbSpline
210
0.0
220
0.0
230
1.0
 70
    11
 71
     3
 72
    36
 73
    32
 74
     0
 42
0.0000000001
 43
0.0000000001
 40
0.0
 40
0.0
 40
0.0
 40
0.0
 40
0.1111111111111111
 40
0.1111111111111111
 40
0.1111111111111111
 40
0.1111111111111111
 40
0.2222222222222222
 40
0.2222222222222222
 40
0.2222222222222222
 40
0.2222222222222222
 40
0.3333333333333333
 40
0.3333333333333333
 40
0.3333333333333333
 40
0.3333333333333333
 40
0.4444444444444444
 40
0.4444444444444444
 40
0.4444444444444444
 40
0.4444444444444444
 40
0.5555555555555556
 40
0.5555555555555556
 40
0.5555555555555556
 40
0.5555555555555556
 40
0.6666666666666666
 40
0.6666666666666666
 40
0.6666666666666666
 40
0.6666666666666666
 40
0.7777777777777778
 40
0.7777777777777778
 40
0.7777777777777778
 40
0.7777777777777778
 40
1.0
 40
1.0
 40
1.0
 40
1.0
 10
-35.7184
 20
-246.1652
 30
0.0
 10
-35.7184
 20
-246.1652
 30
0.0
 10
-28.5304
 20
-244.3702
 30
0.0
 10
-28.5304
 20
-244.3702
 30
0.0
 10
-28.5304
 20
-244.3702
 30
0.0
 10
-24.3369
 20
-243.772
 30
0.0
 10
-17.7477
 20
-236.8907
 30
0.0
 10
-12.9549
 20
-236.2926
 30
0.0
 10
-12.9549
 20
-236.2926
 30
0.0
 10
-8.1633
 20
-235.6936
 30
0.0
 10
-4.5689
 20
-238.0867
 30
0.0
 10
-4.2696
 20
-241.6769
 30
0.0
 10
-4.2696
 20
-241.6769
 30
0.0
 10
-3.9697
 20
-245.2671
 30
0.0
 10
-7.8634
 20
-246.1652
 30
0.0
 10
-7.8634
 20
-246.1652
 30
0.0
 10
-7.8634
 20
-246.1652
 30
0.0
 10
-7.8634
 20
-246.1652
 30
0.0
 10
-3.9697
 20
-247.0632
 30
0.0
 10
-4.2696
 20
-250.6534
 30
0.0
 10
-4.2696
 20
-250.6534
 30
0.0
 10
-4.5689
 20
-254.2426
 30
0.0
 10
-8.1633
 20
-256.6357
 30
0.0
 10
-12.9549
 20
-256.0377
 30
0.0
 10
-12.9549
 20
-256.0377
 30
0.0
 10
-17.7477
 20
-255.4396
 30
0.0
 10
-24.037
 20
-248.8573
 30
0.0
 10
-28.231
 20
-248.2593
 30
0.0
 10
-28.231
 20
-248.2593
 30
0.0
 10
-28.231
 20
-248.2593
 30
0.0
 10
-35.7184
 20
-246.1652
 30
0.0
 10
-35.7184
 20
-246.1652
 30
0.0
  0
SPLINE
  5
55
330
1F
100
AcDbEntity
  8
Layer 1
 62
   250
370
     9
100
AcDbSpline
210
0.0
220
0.0
230
1.0
 70
    11
 71
     3
 72
    28
 73
    24
 74
     0
 42
0.0000000001
 43
0.0000000001
 40
0.0
 40
0.0
 40
0.0
 40
0.0
 40
0.1428571428571428
 40
0.1428571428571428
 40
0.1428571428571428
 40
0.1428571428571428
 40
0.2857142857142857
 40
0.2857142857142857
 40
0.2857142857142857
 40
0.2857142857142857
 40
0.4285714285714285
 40
0.4285714285714285
 40
0.4285714285714285
 40
0.4285714285714285
 40
0.5714285714285714
 40
0.5714285714285714
 40
0.5714285714285714
 40
0.5714285714285714
 40
0.7142857142857143
 40
0.7142857142857143
 40
0.7142857142857143
 40
0.7142857142857143
 40
1.0
 40
1.0
 40
1.0
 40
1.0
 10
10.7068
 20
-240.4809
 30
0.0
 10
10.7068
 20
-240.4809
 30
0.0
 10
0.2233
 20
-219.2397
 30
0.0
 10
-15.3512
 20
-218.0426
 30
0.0
 10
-15.3512
 20
-218.0426
 30
0.0
 10
-30.9262
 20
-216.8455
 30
0.0
 10
-33.0228
 20
-229.7103
 30
0.0
 10
-33.0228
 20
-229.7103
 30
0.0
 10
-33.0228
 20
-229.7103
 30
0.0
 10
-33.0228
 20
-229.7103
 30
0.0
 10
-33.0228
 20
-234.4975
 30
0.0
 10
-28.231
 20
-234.4975
 30
0.0
 10
-28.231
 20
-234.4975
 30
0.0
 10
-23.4384
 20
-234.4975
 30
0.0
 10
-25.2355
 20
-229.4112
 30
0.0
 10
-27.6313
 20
-230.3083
 30
0.0
 10
-27.6313
 20
-230.3083
 30
0.0
 10
-27.6313
 20
-230.3083
 30
0.0
 10
-29.4285
 20
-222.2309
 30
0.0
 10
-17.149
 20
-221.9318
 30
0.0
 10
-17.149
 20
-221.9318
 30
0.0
 10
-4.8683
 20
-221.6329
 30
0.0
 10
10.7063
 20
-240.4809
 30
0.0
 10
10.7068
 20
-240.4809
 30
0.0
  0
SPLINE
  5
56
330
1F
100
AcDbEntity
  8
Layer 1
 62
   250
370
     9
100
AcDbSpline
210
0.0
220
0.0
230
1.0
 70
    11
 71
     3
 72
    28
 73
    24
 74
     0
 42
0.0000000001
 43
0.0000000001
 40
0.0
 40
0.0
 40
0.0
 40
0.0
 40
0.1428571428571428
 40
0.1428571428571428
 40
0.1428571428571428
 40
0.1428571428571428
 40
0.2857142857142857
 40
0.2857142857142857
 40
0.2857142857142857
 40
0.2857142857142857
 40
0.4285714285714285
 40
0.4285714285714285
 40
0.4285714285714285
 40
0.4285714285714285
 40
0.5714285714285714
 40
0.5714285714285714
 40
0.5714285714285714
 40
0.5714285714285714
 40
0.7142857142857143
 40
0.7142857142857143
 40
0.7142857142857143
 40
0.7142857142857143
 40
1.0
 40
1.0
 40
1.0
 40
1.0
 10
9.209
 20
-246.1652
 30
0.0
 10
8.6098
 20
-242.8739
 30
0.0
 10
13.7019
 20
-245.2671
 30
0.0
 10
13.7019
 20
-245.2671
 30
0.0
 10
13.7019
 20
-245.2671
 30
0.0
 10
11.6054
 20
-241.9769
 30
0.0
 10
15.7983
 20
-239.5828
 30
0.0
 10
15.7983
 20
-239.5828
 30
0.0
 10
15.7983
 20
-239.5828
 30
0.0
 10
18.494
 20
-247.0632
 30
0.0
 10
32.7734
 20
-245.8125
 30
0.0
 10
36.7643
 20
-246.1652
 30
0.0
 10
36.7643
 20
-246.1652
 30
0.0
 10
32.774
 20
-246.3858
 30
0.0
 10
18.494
 20
-245.2671
 30
0.0
 10
15.7983
 20
-252.7475
 30
0.0
 10
15.7983
 20
-252.7475
 30
0.0
 10
15.7983
 20
-252.7475
 30
0.0
 10
11.6054
 20
-250.3534
 30
0.0
 10
13.7019
 20
-247.0632
 30
0.0
 10
13.7019
 20
-247.0632
 30
0.0
 10
13.7019
 20
-247.0632
 30
0.0
 10
8.6098
 20
-249.4564
 30
0.0
 10
9.209
 20
-246.1652
 30
0.0
  0
SPLINE
  5
57
330
1F
100
AcDbEntity
  8
Layer 1
 62
   250
370
     9
100
AcDbSpline
210
0.0
220
0.0
230
1.0
 70
    11
 71
     3
 72
    52
 73
    48
 74
     0
 42
0.0000000001
 43
0.0000000001
 40
0.0
 40
0.0
 40
0.0
 40
0.0
 40
0.0769230769230769
 40
0.0769230769230769
 40
0.0769230769230769
 40
0.0769230769230769
 40
0.1538461538461539
 40
0.1538461538461539
 40
0.1538461538461539
 40
0.1538461538461539
 40
0.2307692307692308
 40
0.2307692307692308
 40
0.2307692307692308
 40
0.2307692307692308
 40
0.3076923076923077
 40
0.3076923076923077
 40
0.3076923076923077
 40
0.3076923076923077
 40
0.3846153846153846
 40
0.3846153846153846
 40
0.3846153846153846
 40
0.3846153846153846
 40
0.4615384615384616
 40
0.4615384615384616
 40
0.4615384615384616
 40
0.4615384615384616
 40
0.5384615384615384
 40
0.5384615384615384
 40
0.5384615384615384
 40
0.5384615384615384
 40
0.6153846153846154
 40
0.6153846153846154
 40
0.6153846153846154
 40
0.6153846153846154
 40
0.6923076923076923
 40
0.6923076923076923
 40
0.6923076923076923
 40
0.6923076923076923
 40
0.7692307692307693
 40
0.7692307692307693
 40
0.7692307692307693
 40
0.7692307692307693
 40
0.8461538461538461
 40
0.8461538461538461
 40
0.8461538461538461
 40
0.8461538461538461
 40
1.0
 40
1.0
 40
1.0
 40
1.0
 10
30.7742
 20
-227.0183
 30
0.0
 10
30.7742
 20
-227.0183
 30
0.0
 10
25.3827
 20
-222.8299
 30
0.0
 10
27.1799
 20
-218.6406
 30
0.0
 10
27.1799
 20
-218.6406
 30
0.0
 10
27.1799
 20
-218.6406
 30
0.0
 10
19.6919
 20
-219.5377
 30
0.0
 10
21.4891
 20
-227.3172
 30
0.0
 10
21.4891
 20
-227.3172
 30
0.0
 10
21.4891
 20
-227.3172
 30
0.0
 10
19.6919
 20
-222.2309
 30
0.0
 10
14.0012
 20
-219.5377
 30
0.0
 10
14.0012
 20
-219.5377
 30
0.0
 10
8.3104
 20
-216.8455
 30
0.0
 10
13.7019
 20
-209.6652
 30
0.0
 10
13.7019
 20
-209.6652
 30
0.0
 10
13.7019
 20
-209.6652
 30
0.0
 10
13.7019
 20
-209.6652
 30
0.0
 10
5.9146
 20
-213.5554
 30
0.0
 10
9.209
 20
-224.624
 30
0.0
 10
9.209
 20
-224.624
 30
0.0
 10
17.3565
 20
-251.9963
 30
0.0
 10
77.0001
 20
-251.9948
 30
0.0
 10
85.1446
 20
-224.624
 30
0.0
 10
85.1446
 20
-224.624
 30
0.0
 10
88.4396
 20
-213.5554
 30
0.0
 10
80.6523
 20
-209.6652
 30
0.0
 10
80.6523
 20
-209.6652
 30
0.0
 10
80.6523
 20
-209.6652
 30
0.0
 10
80.6523
 20
-209.6652
 30
0.0
 10
86.0436
 20
-216.8455
 30
0.0
 10
80.3524
 20
-219.5377
 30
0.0
 10
80.3524
 20
-219.5377
 30
0.0
 10
74.6616
 20
-222.2309
 30
0.0
 10
72.8651
 20
-227.3172
 30
0.0
 10
72.8651
 20
-227.3172
 30
0.0
 10
72.8651
 20
-227.3172
 30
0.0
 10
74.6616
 20
-219.5377
 30
0.0
 10
67.1743
 20
-218.6406
 30
0.0
 10
67.1743
 20
-218.6406
 30
0.0
 10
67.1743
 20
-218.6406
 30
0.0
 10
68.9709
 20
-222.8299
 30
0.0
 10
63.58
 20
-227.0183
 30
0.0
 10
63.58
 20
-227.0183
 30
0.0
 10
63.58
 20
-227.0183
 30
0.0
 10
61.2747
 20
-249.0549
 30
0.0
 10
33.0792
 20
-249.0555
 30
0.0
 10
30.7742
 20
-227.0183
 30
0.0
  0
SPLINE
  5
58
330
1F
100
AcDbEntity
  8
Layer 1
 62
   250
370
     9
100
AcDbSpline
210
0.0
220
0.0
230
1.0
 70
    11
 71
     3
 72
    24
 73
    20
 74
     0
 42
0.0000000001
 43
0.0000000001
 40
0.0
 40
0.0
 40
0.0
 40
0.0
 40
0.1666666666666667
 40
0.1666666666666667
 40
0.1666666666666667
 40
0.1666666666666667
 40
0.3333333333333333
 40
0.3333333333333333
 40
0.3333333333333333
 40
0.3333333333333333
 40
0.5
 40
0.5
 40
0.5
 40
0.5
 40
0.6666666666666666
 40
0.6666666666666666
 40
0.6666666666666666
 40
0.6666666666666666
 40
1.0
 40
1.0
 40
1.0
 40
1.0
 10
-39.6121
 20
-249.1573
 30
0.0
 10
-39.6121
 20
-249.1573
 30
0.0
 10
-45.0035
 20
-252.1485
 30
0.0
 10
-43.2069
 20
-257.5338
 30
0.0
 10
-43.2069
 20
-257.5338
 30
0.0
 10
-41.4093
 20
-262.9191
 30
0.0
 10
-39.0129
 20
-258.1318
 30
0.0
 10
-39.0129
 20
-258.1318
 30
0.0
 10
-39.0129
 20
-258.1318
 30
0.0
 10
-39.0129
 20
-258.1318
 30
0.0
 10
-38.7136
 20
-263.5171
 30
0.0
 10
-43.8056
 20
-263.2181
 30
0.0
 10
-43.8056
 20
-263.2181
 30
0.0
 10
-48.8977
 20
-262.9191
 30
0.0
 10
-49.7957
 20
-251.8495
 30
0.0
 10
-41.1099
 20
-248.2593
 30
0.0
 10
-41.1099
 20
-248.2593
 30
0.0
 10
-41.1099
 20
-248.2593
 30
0.0
 10
-39.6121
 20
-249.1573
 30
0.0
 10
-39.6121
 20
-249.1573
 30
0.0
  0
SPLINE
  5
59
330
1F
100
AcDbEntity
  8
Layer 1
 62
   250
370
     9
100
AcDbSpline
210
0.0
220
0.0
230
1.0
 70
    11
 71
     3
 72
    28
 73
    24
 74
     0
 42
0.0000000001
 43
0.0000000001
 40
0.0
 40
0.0
 40
0.0
 40
0.0
 40
0.1428571428571428
 40
0.1428571428571428
 40
0.1428571428571428
 40
0.1428571428571428
 40
0.2857142857142857
 40
0.2857142857142857
 40
0.2857142857142857
 40
0.2857142857142857
 40
0.4285714285714285
 40
0.4285714285714285
 40
0.4285714285714285
 40
0.4285714285714285
 40
0.5714285714285714
 40
0.5714285714285714
 40
0.5714285714285714
 40
0.5714285714285714
 40
0.7142857142857143
 40
0.7142857142857143
 40
0.7142857142857143
 40
0.7142857142857143
 40
1.0
 40
1.0
 40
1.0
 40
1.0
 10
10.7068
 20
-251.8495
 30
0.0
 10
10.7068
 20
-251.8495
 30
0.0
 10
0.2233
 20
-273.0906
 30
0.0
 10
-15.3512
 20
-274.2877
 30
0.0
 10
-15.3512
 20
-274.2877
 30
0.0
 10
-30.9262
 20
-275.4848
 30
0.0
 10
-33.0228
 20
-262.6201
 30
0.0
 10
-33.0228
 20
-262.6201
 30
0.0
 10
-33.0228
 20
-262.6201
 30
0.0
 10
-33.0228
 20
-262.6201
 30
0.0
 10
-33.0228
 20
-257.8328
 30
0.0
 10
-28.231
 20
-257.8328
 30
0.0
 10
-28.231
 20
-257.8328
 30
0.0
 10
-23.4384
 20
-257.8328
 30
0.0
 10
-25.2355
 20
-262.9191
 30
0.0
 10
-27.6313
 20
-262.0221
 30
0.0
 10
-27.6313
 20
-262.0221
 30
0.0
 10
-27.6313
 20
-262.0221
 30
0.0
 10
-29.4285
 20
-270.0994
 30
0.0
 10
-17.149
 20
-270.3985
 30
0.0
 10
-17.149
 20
-270.3985
 30
0.0
 10
-4.8683
 20
-270.6974
 30
0.0
 10
10.7063
 20
-251.8495
 30
0.0
 10
10.7068
 20
-251.8495
 30
0.0
  0
SPLINE
  5
5A
330
1F
100
AcDbEntity
  8
Layer 1
 62
   250
370
     9
100
AcDbSpline
210
0.0
220
0.0
230
1.0
 70
    11
 71
     3
 72
    20
 73
    16
 74
     0
 42
0.0000000001
 43
0.0000000001
 40
0.0
 40
0.0
 40
0.0
 40
0.0
 40
0.2
 40
0.2
 40
0.2
 40
0.2
 40
0.4
 40
0.4
 40
0.4
 40
0.4
 40
0.6
 40
0.6
 40
0.6
 40
0.6
 40
1.0
 40
1.0
 40
1.0
 40
1.0
 10
92.9324
 20
-243.4731
 30
0.0
 10
91.2953
 20
-243.4731
 30
0.0
 10
89.9672
 20
-244.7985
 30
0.0
 10
89.9672
 20
-246.4344
 30
0.0
 10
89.9672
 20
-246.4344
 30
0.0
 10
89.9672
 20
-248.0702
 30
0.0
 10
91.2948
 20
-249.3957
 30
0.0
 10
92.9324
 20
-249.3957
 30
0.0
 10
92.9324
 20
-249.3957
 30
0.0
 10
94.5702
 20
-249.3957
 30
0.0
 10
95.8978
 20
-248.0702
 30
0.0
 10
95.8978
 20
-246.4344
 30
0.0
 10
95.8978
 20
-246.4344
 30
0.0
 10
95.8978
 20
-244.7985
 30
0.0
 10
94.5697
 20
-243.4731
 30
0.0
 10
92.9324
 20
-243.4731
 30
0.0
  0
SPLINE
  5
5B
330
1F
100
AcDbEntity
  8
Layer 1
 62
   250
370
     9
100
AcDbSpline
210
0.0
220
0.0
230
1.0
 70
    11
 71
     3
 72
    20
 73
    16
 74
     0
 42
0.0000000001
 43
0.0000000001
 40
0.0
 40
0.0
 40
0.0
 40
0.0
 40
0.2
 40
0.2
 40
0.2
 40
0.2
 40
0.4
 40
0.4
 40
0.4
 40
0.4
 40
0.6
 40
0.6
 40
0.6
 40
0.6
 40
1.0
 40
1.0
 40
1.0
 40
1.0
 10
158.6774
 20
-246.7632
 30
0.0
 10
154.7827
 20
-248.8573
 30
0.0
 10
148.0436
 20
-251.8495
 30
0.0
 10
144.7487
 20
-250.3534
 30
0.0
 10
144.7487
 20
-250.3534
 30
0.0
 10
141.4543
 20
-248.8573
 30
0.0
 10
135.763
 20
-246.7632
 30
0.0
 10
135.763
 20
-246.7632
 30
0.0
 10
135.763
 20
-246.7632
 30
0.0
 10
135.763
 20
-246.7632
 30
0.0
 10
141.4543
 20
-244.6691
 30
0.0
 10
144.7487
 20
-243.173
 30
0.0
 10
144.7487
 20
-243.173
 30
0.0
 10
148.0436
 20
-241.6769
 30
0.0
 10
154.7827
 20
-244.6691
 30
0.0
 10
158.6774
 20
-246.7632
 30
0.0
  0
SPLINE
  5
5C
330
1F
100
AcDbEntity
  8
Layer 1
 62
   250
370
     9
100
AcDbSpline
210
0.0
220
0.0
230
1.0
 70
    11
 71
     3
 72
    24
 73
    20
 74
     0
 42
0.0000000001
 43
0.0000000001
 40
0.0
 40
0.0
 40
0.0
 40
0.0
 40
0.1666666666666667
 40
0.1666666666666667
 40
0.1666666666666667
 40
0.1666666666666667
 40
0.3333333333333333
 40
0.3333333333333333
 40
0.3333333333333333
 40
0.3333333333333333
 40
0.5
 40
0.5
 40
0.5
 40
0.5
 40
0.6666666666666666
 40
0.6666666666666666
 40
0.6666666666666666
 40
0.6666666666666666
 40
1.0
 40
1.0
 40
1.0
 40
1.0
 10
133.9664
 20
-244.3702
 30
0.0
 10
133.9664
 20
-244.3702
 30
0.0
 10
139.3573
 20
-241.3789
 30
0.0
 10
137.5607
 20
-235.9936
 30
0.0
 10
137.5607
 20
-235.9936
 30
0.0
 10
135.763
 20
-230.6083
 30
0.0
 10
133.3672
 20
-235.3946
 30
0.0
 10
133.3672
 20
-235.3946
 30
0.0
 10
133.3672
 20
-235.3946
 30
0.0
 10
133.3672
 20
-235.3946
 30
0.0
 10
133.0678
 20
-230.0093
 30
0.0
 10
138.1599
 20
-230.3083
 30
0.0
 10
138.1599
 20
-230.3083
 30
0.0
 10
143.252
 20
-230.6083
 30
0.0
 10
144.15
 20
-241.6769
 30
0.0
 10
135.4636
 20
-245.2671
 30
0.0
 10
135.4636
 20
-245.2671
 30
0.0
 10
135.4636
 20
-245.2671
 30
0.0
 10
133.9664
 20
-244.3702
 30
0.0
 10
133.9664
 20
-244.3702
 30
0.0
  0
SPLINE
  5
5D
330
1F
100
AcDbEntity
  8
Layer 1
 62
   250
370
     9
100
AcDbSpline
210
0.0
220
0.0
230
1.0
 70
    11
 71
     3
 72
    36
 73
    32
 74
     0
 42
0.0000000001
 43
0.0000000001
 40
0.0
 40
0.0
 40
0.0
 40
0.0
 40
0.1111111111111111
 40
0.1111111111111111
 40
0.1111111111111111
 40
0.1111111111111111
 40
0.2222222222222222
 40
0.2222222222222222
 40
0.2222222222222222
 40
0.2222222222222222
 40
0.3333333333333333
 40
0.3333333333333333
 40
0.3333333333333333
 40
0.3333333333333333
 40
0.4444444444444444
 40
0.4444444444444444
 40
0.4444444444444444
 40
0.4444444444444444
 40
0.5555555555555556
 40
0.5555555555555556
 40
0.5555555555555556
 40
0.5555555555555556
 40
0.6666666666666666
 40
0.6666666666666666
 40
0.6666666666666666
 40
0.6666666666666666
 40
0.7777777777777778
 40
0.7777777777777778
 40
0.7777777777777778
 40
0.7777777777777778
 40
1.0
 40
1.0
 40
1.0
 40
1.0
 10
130.0733
 20
-246.1652
 30
0.0
 10
130.0733
 20
-246.1652
 30
0.0
 10
122.8847
 20
-244.3702
 30
0.0
 10
122.8847
 20
-244.3702
 30
0.0
 10
122.8847
 20
-244.3702
 30
0.0
 10
118.6917
 20
-243.772
 30
0.0
 10
112.1013
 20
-236.8907
 30
0.0
 10
107.309
 20
-236.2926
 30
0.0
 10
107.309
 20
-236.2926
 30
0.0
 10
102.5174
 20
-235.6936
 30
0.0
 10
98.9231
 20
-238.0867
 30
0.0
 10
98.6227
 20
-241.6769
 30
0.0
 10
98.6227
 20
-241.6769
 30
0.0
 10
98.3244
 20
-245.2671
 30
0.0
 10
102.217
 20
-246.1652
 30
0.0
 10
102.217
 20
-246.1652
 30
0.0
 10
102.217
 20
-246.1652
 30
0.0
 10
102.2175
 20
-246.1652
 30
0.0
 10
98.3234
 20
-247.0632
 30
0.0
 10
98.6227
 20
-250.6534
 30
0.0
 10
98.6227
 20
-250.6534
 30
0.0
 10
98.9231
 20
-254.2426
 30
0.0
 10
102.5164
 20
-256.6357
 30
0.0
 10
107.309
 20
-256.0377
 30
0.0
 10
107.309
 20
-256.0377
 30
0.0
 10
112.1019
 20
-255.4396
 30
0.0
 10
118.3913
 20
-248.8573
 30
0.0
 10
122.5848
 20
-248.2593
 30
0.0
 10
122.5848
 20
-248.2593
 30
0.0
 10
122.5848
 20
-248.2593
 30
0.0
 10
130.0733
 20
-246.1652
 30
0.0
 10
130.0733
 20
-246.1652
 30
0.0
  0
SPLINE
  5
5E
330
1F
100
AcDbEntity
  8
Layer 1
 62
   250
370
     9
100
AcDbSpline
210
0.0
220
0.0
230
1.0
 70
    11
 71
     3
 72
    28
 73
    24
 74
     0
 42
0.0000000001
 43
0.0000000001
 40
0.0
 40
0.0
 40
0.0
 40
0.0
 40
0.1428571428571428
 40
0.1428571428571428
 40
0.1428571428571428
 40
0.1428571428571428
 40
0.2857142857142857
 40
0.2857142857142857
 40
0.2857142857142857
 40
0.2857142857142857
 40
0.4285714285714285
 40
0.4285714285714285
 40
0.4285714285714285
 40
0.4285714285714285
 40
0.5714285714285714
 40
0.5714285714285714
 40
0.5714285714285714
 40
0.5714285714285714
 40
0.7142857142857143
 40
0.7142857142857143
 40
0.7142857142857143
 40
0.7142857142857143
 40
1.0
 40
1.0
 40
1.0
 40
1.0
 10
83.6474
 20
-240.4809
 30
0.0
 10
83.6474
 20
-240.4809
 30
0.0
 10
94.1304
 20
-219.2397
 30
0.0
 10
109.705
 20
-218.0426
 30
0.0
 10
109.705
 20
-218.0426
 30
0.0
 10
125.2805
 20
-216.8455
 30
0.0
 10
127.3771
 20
-229.7103
 30
0.0
 10
127.3771
 20
-229.7103
 30
0.0
 10
127.3771
 20
-229.7103
 30
0.0
 10
127.3771
 20
-229.7103
 30
0.0
 10
127.3771
 20
-234.4975
 30
0.0
 10
122.5848
 20
-234.4975
 30
0.0
 10
122.5848
 20
-234.4975
 30
0.0
 10
117.7926
 20
-234.4975
 30
0.0
 10
119.5892
 20
-229.4112
 30
0.0
 10
121.9856
 20
-230.3083
 30
0.0
 10
121.9856
 20
-230.3083
 30
0.0
 10
121.9856
 20
-230.3083
 30
0.0
 10
123.7828
 20
-222.2309
 30
0.0
 10
111.5027
 20
-221.9318
 30
0.0
 10
111.5027
 20
-221.9318
 30
0.0
 10
99.2225
 20
-221.6329
 30
0.0
 10
83.6469
 20
-240.4809
 30
0.0
 10
83.6474
 20
-240.4809
 30
0.0
  0
SPLINE
  5
5F
330
1F
100
AcDbEntity
  8
Layer 1
 62
   250
370
     9
100
AcDbSpline
210
0.0
220
0.0
230
1.0
 70
    11
 71
     3
 72
    28
 73
    24
 74
     0
 42
0.0000000001
 43
0.0000000001
 40
0.0
 40
0.0
 40
0.0
 40
0.0
 40
0.1428571428571428
 40
0.1428571428571428
 40
0.1428571428571428
 40
0.1428571428571428
 40
0.2857142857142857
 40
0.2857142857142857
 40
0.2857142857142857
 40
0.2857142857142857
 40
0.4285714285714285
 40
0.4285714285714285
 40
0.4285714285714285
 40
0.4285714285714285
 40
0.5714285714285714
 40
0.5714285714285714
 40
0.5714285714285714
 40
0.5714285714285714
 40
0.7142857142857143
 40
0.7142857142857143
 40
0.7142857142857143
 40
0.7142857142857143
 40
1.0
 40
1.0
 40
1.0
 40
1.0
 10
85.1446
 20
-246.1652
 30
0.0
 10
85.7444
 20
-242.8739
 30
0.0
 10
80.6523
 20
-245.2671
 30
0.0
 10
80.6523
 20
-245.2671
 30
0.0
 10
80.6523
 20
-245.2671
 30
0.0
 10
82.7488
 20
-241.9769
 30
0.0
 10
78.5559
 20
-239.5828
 30
0.0
 10
78.5559
 20
-239.5828
 30
0.0
 10
78.5559
 20
-239.5828
 30
0.0
 10
75.8606
 20
-247.0632
 30
0.0
 10
58.5704
 20
-245.6967
 30
0.0
 10
57.5894
 20
-246.1652
 30
0.0
 10
57.5894
 20
-246.1652
 30
0.0
 10
58.6587
 20
-246.3142
 30
0.0
 10
75.8596
 20
-245.2671
 30
0.0
 10
78.5559
 20
-252.7475
 30
0.0
 10
78.5559
 20
-252.7475
 30
0.0
 10
78.5559
 20
-252.7475
 30
0.0
 10
82.7488
 20
-250.3534
 30
0.0
 10
80.6523
 20
-247.0632
 30
0.0
 10
80.6523
 20
-247.0632
 30
0.0
 10
80.6523
 20
-247.0632
 30
0.0
 10
85.7438
 20
-249.4564
 30
0.0
 10
85.1446
 20
-246.1652
 30
0.0
  0
SPLINE
  5
60
330
1F
100
AcDbEntity
  8
Layer 1
 62
   250
370
     9
100
AcDbSpline
210
0.0
220
0.0
230
1.0
 70
    11
 71
     3
 72
    24
 73
    20
 74
     0
 42
0.0000000001
 43
0.0000000001
 40
0.0
 40
0.0
 40
0.0
 40
0.0
 40
0.1666666666666667
 40
0.1666666666666667
 40
0.1666666666666667
 40
0.1666666666666667
 40
0.3333333333333333
 40
0.3333333333333333
 40
0.3333333333333333
 40
0.3333333333333333
 40
0.5
 40
0.5
 40
0.5
 40
0.5
 40
0.6666666666666666
 40
0.6666666666666666
 40
0.6666666666666666
 40
0.6666666666666666
 40
1.0
 40
1.0
 40
1.0
 40
1.0
 10
133.9664
 20
-249.1573
 30
0.0
 10
133.9664
 20
-249.1573
 30
0.0
 10
139.3573
 20
-252.1485
 30
0.0
 10
137.5607
 20
-257.5338
 30
0.0
 10
137.5607
 20
-257.5338
 30
0.0
 10
135.763
 20
-262.9191
 30
0.0
 10
133.3672
 20
-258.1318
 30
0.0
 10
133.3672
 20
-258.1318
 30
0.0
 10
133.3672
 20
-258.1318
 30
0.0
 10
133.3672
 20
-258.1318
 30
0.0
 10
133.0678
 20
-263.5171
 30
0.0
 10
138.1599
 20
-263.2181
 30
0.0
 10
138.1599
 20
-263.2181
 30
0.0
 10
143.252
 20
-262.9191
 30
0.0
 10
144.15
 20
-251.8495
 30
0.0
 10
135.4636
 20
-248.2593
 30
0.0
 10
135.4636
 20
-248.2593
 30
0.0
 10
135.4636
 20
-248.2593
 30
0.0
 10
133.9664
 20
-249.1573
 30
0.0
 10
133.9664
 20
-249.1573
 30
0.0
  0
SPLINE
  5
61
330
1F
100
AcDbEntity
  8
Layer 1
 62
   250
370
     9
100
AcDbSpline
210
0.0
220
0.0
230
1.0
 70
    11
 71
     3
 72
    28
 73
    24
 74
     0
 42
0.0000000001
 43
0.0000000001
 40
0.0
 40
0.0
 40
0.0
 40
0.0
 40
0.1428571428571428
 40
0.1428571428571428
 40
0.1428571428571428
 40
0.1428571428571428
 40
0.2857142857142857
 40
0.2857142857142857
 40
0.2857142857142857
 40
0.2857142857142857
 40
0.4285714285714285
 40
0.4285714285714285
 40
0.4285714285714285
 40
0.4285714285714285
 40
0.5714285714285714
 40
0.5714285714285714
 40
0.5714285714285714
 40
0.5714285714285714
 40
0.7142857142857143
 40
0.7142857142857143
 40
0.7142857142857143
 40
0.7142857142857143
 40
1.0
 40
1.0
 40
1.0
 40
1.0
 10
83.6474
 20
-251.8495
 30
0.0
 10
83.6474
 20
-251.8495
 30
0.0
 10
94.1304
 20
-273.0906
 30
0.0
 10
109.705
 20
-274.2877
 30
0.0
 10
109.705
 20
-274.2877
 30
0.0
 10
125.2805
 20
-275.4848
 30
0.0
 10
127.3771
 20
-262.6201
 30
0.0
 10
127.3771
 20
-262.6201
 30
0.0
 10
127.3771
 20
-262.6201
 30
0.0
 10
127.3771
 20
-262.6201
 30
0.0
 10
127.3771
 20
-257.8328
 30
0.0
 10
122.5848
 20
-257.8328
 30
0.0
 10
122.5848
 20
-257.8328
 30
0.0
 10
117.7926
 20
-257.8328
 30
0.0
 10
119.5892
 20
-262.9191
 30
0.0
 10
121.9856
 20
-262.0221
 30
0.0
 10
121.9856
 20
-262.0221
 30
0.0
 10
121.9856
 20
-262.0221
 30
0.0
 10
123.7828
 20
-270.0994
 30
0.0
 10
111.5027
 20
-270.3985
 30
0.0
 10
111.5027
 20
-270.3985
 30
0.0
 10
99.2225
 20
-270.6974
 30
0.0
 10
83.6469
 20
-251.8495
 30
0.0
 10
83.6474
 20
-251.8495
 30
0.0
  0
SPLINE
  5
62
330
1F
100
AcDbEntity
  8
Layer 1
 62
   250
370
    20
100
AcDbSpline
210
0.0
220
0.0
230
1.0
 70
    11
 71
     3
 72
    36
 73
    32
 74
     0
 42
0.0000000001
 43
0.0000000001
 40
0.0
 40
0.0
 40
0.0
 40
0.0
 40
0.1111111111111111
 40
0.1111111111111111
 40
0.1111111111111111
 40
0.1111111111111111
 40
0.2222222222222222
 40
0.2222222222222222
 40
0.2222222222222222
 40
0.2222222222222222
 40
0.3333333333333333
 40
0.3333333333333333
 40
0.3333333333333333
 40
0.3333333333333333
 40
0.4444444444444444
 40
0.4444444444444444
 40
0.4444444444444444
 40
0.4444444444444444
 40
0.5555555555555556
 40
0.5555555555555556
 40
0.5555555555555556
 40
0.5555555555555556
 40
0.6666666666666666
 40
0.6666666666666666
 40
0.6666666666666666
 40
0.6666666666666666
 40
0.7777777777777778
 40
0.7777777777777778
 40
0.7777777777777778
 40
0.7777777777777778
 40
1.0
 40
1.0
 40
1.0
 40
1.0
 10
320.1773
 20
-123.1653
 30
0.0
 10
320.1773
 20
-187.7957
 30
0.0
 10
350.1773
 20
-191.2507
 30
0.0
 10
350.1773
 20
-246.1653
 30
0.0
 10
350.1773
 20
-246.1653
 30
0.0
 10
350.1773
 20
-301.0799
 30
0.0
 10
320.1773
 20
-304.5349
 30
0.0
 10
320.1773
 20
-369.1653
 30
0.0
 10
320.1773
 20
-369.1653
 30
0.0
 10
208.4711
 20
-369.1653
 30
0.0
 10
126.8435
 20
-399.1653
 30
0.0
 10
47.1773
 20
-399.1653
 30
0.0
 10
47.1773
 20
-399.1653
 30
0.0
 10
-32.4889
 20
-399.1653
 30
0.0
 10
-114.1165
 20
-369.1653
 30
0.0
 10
-225.8227
 20
-369.1653
 30
0.0
 10
-225.8227
 20
-369.1653
 30
0.0
 10
-225.8227
 20
-304.5349
 30
0.0
 10
-255.8227
 20
-301.0799
 30
0.0
 10
-255.8227
 20
-246.1653
 30
0.0
 10
-255.8227
 20
-246.1653
 30
0.0
 10
-255.8227
 20
-191.2507
 30
0.0
 10
-225.8227
 20
-187.7957
 30
0.0
 10
-225.8227
 20
-123.1653
 30
0.0
 10
-225.8227
 20
-123.1653
 30
0.0
 10
-114.1165
 20
-123.1653
 30
0.0
 10
-32.4889
 20
-93.1653
 30
0.0
 10
47.1773
 20
-93.1653
 30
0.0
 10
47.1773
 20
-93.1653
 30
0.0
 10
126.8435
 20
-93.1653
 30
0.0
 10
208.4711
 20
-123.1653
 30
0.0
 10
320.1773
 20
-123.1653
 30
0.0
  0
SPLINE
  5
63
330
1F
100
AcDbEntity
  8
Layer 1
 62
   250
370
    20
100
AcDbSpline
210
0.0
220
0.0
230
1.0
 70
    11
 71
     3
 72
   100
 73
    96
 74
     0
 42
0.0000000001
 43
0.0000000001
 40
0.0
 40
0.0
 40
0.0
 40
0.0
 40
0.04
 40
0.04
 40
0.04
 40
0.04
 40
0.08
 40
0.08
 40
0.08
 40
0.08
 40
0.12
 40
0.12
 40
0.12
 40
0.12
 40
0.16
 40
0.16
 40
0.16
 40
0.16
 40
0.2
 40
0.2
 40
0.2
 40
0.2
 40
0.24
 40
0.24
 40
0.24
 40
0.24
 40
0.28
 40
0.28
 40
0.28
 40
0.28
 40
0.32
 40
0.32
 40
0.32
 40
0.32
 40
0.36
 40
0.36
 40
0.36
 40
0.36
 40
0.4
 40
0.4
 40
0.4
 40
0.4
 40
0.44
 40
0.44
 40
0.44
 40
0.44
 40
0.48
 40
0.48
 40
0.48
 40
0.48
 40
0.52
 40
0.52
 40
0.52
 40
0.52
 40
0.56
 40
0.56
 40
0.56
 40
0.56
 40
0.6
 40
0.6
 40
0.6
 40
0.6
 40
0.64
 40
0.64
 40
0.64
 40
0.64
 40
0.68
 40
0.68
 40
0.68
 40
0.68
 40
0.72
 40
0.72
 40
0.72
 40
0.72
 40
0.76
 40
0.76
 40
0.76
 40
0.76
 40
0.8
 40
0.8
 40
0.8
 40
0.8
 40
0.84
 40
0.84
 40
0.84
 40
0.84
 40
0.88
 40
0.88
 40
0.88
 40
0.88
 40
0.92
 40
0.92
 40
0.92
 40
0.92
 40
1.0
 40
1.0
 40
1.0
 40
1.0
 10
-204.0748
 20
-346.5324
 30
0.0
 10
-184.2118
 20
-347.1965
 30
0.0
 10
-164.4065
 20
-348.7413
 30
0.0
 10
-144.6315
 20
-351.0016
 30
0.0
 10
-144.6315
 20
-351.0016
 30
0.0
 10
-120.7859
 20
-353.7272
 30
0.0
 10
-97.1289
 20
-357.4848
 30
0.0
 10
-73.4708
 20
-361.4876
 30
0.0
 10
-73.4708
 20
-361.4876
 30
0.0
 10
-34.0045
 20
-368.165
 30
0.0
 10
7.0675
 20
-376.1653
 30
0.0
 10
47.1773
 20
-376.1653
 30
0.0
 10
47.1773
 20
-376.1653
 30
0.0
 10
87.2871
 20
-376.1653
 30
0.0
 10
128.3591
 20
-368.165
 30
0.0
 10
167.8254
 20
-361.4876
 30
0.0
 10
167.8254
 20
-361.4876
 30
0.0
 10
191.4835
 20
-357.4848
 30
0.0
 10
215.1405
 20
-353.7272
 30
0.0
 10
238.9861
 20
-351.0016
 30
0.0
 10
238.9861
 20
-351.0016
 30
0.0
 10
258.7611
 20
-348.7413
 30
0.0
 10
278.5664
 20
-347.1965
 30
0.0
 10
298.4294
 20
-346.5324
 30
0.0
 10
298.4294
 20
-346.5324
 30
0.0
 10
299.4714
 20
-337.644
 30
0.0
 10
301.2207
 20
-328.8582
 30
0.0
 10
303.886
 20
-320.1811
 30
0.0
 10
303.886
 20
-320.1811
 30
0.0
 10
307.3107
 20
-309.0317
 30
0.0
 10
312.0152
 20
-299.2643
 30
0.0
 10
316.9488
 20
-288.7887
 30
0.0
 10
316.9488
 20
-288.7887
 30
0.0
 10
324.0458
 20
-273.7194
 30
0.0
 10
327.1773
 20
-263.1146
 30
0.0
 10
327.1773
 20
-246.1653
 30
0.0
 10
327.1773
 20
-246.1653
 30
0.0
 10
327.1773
 20
-229.216
 30
0.0
 10
324.0458
 20
-218.6112
 30
0.0
 10
316.9488
 20
-203.5419
 30
0.0
 10
316.9488
 20
-203.5419
 30
0.0
 10
312.0152
 20
-193.0663
 30
0.0
 10
307.3107
 20
-183.2989
 30
0.0
 10
303.886
 20
-172.1495
 30
0.0
 10
303.886
 20
-172.1495
 30
0.0
 10
301.2207
 20
-163.4724
 30
0.0
 10
299.4714
 20
-154.6866
 30
0.0
 10
298.4294
 20
-145.7982
 30
0.0
 10
298.4294
 20
-145.7982
 30
0.0
 10
278.5664
 20
-145.1341
 30
0.0
 10
258.7611
 20
-143.5893
 30
0.0
 10
238.9861
 20
-141.329
 30
0.0
 10
238.9861
 20
-141.329
 30
0.0
 10
215.1405
 20
-138.6034
 30
0.0
 10
191.4835
 20
-134.8458
 30
0.0
 10
167.8254
 20
-130.843
 30
0.0
 10
167.8254
 20
-130.843
 30
0.0
 10
128.3591
 20
-124.1656
 30
0.0
 10
87.2871
 20
-116.1653
 30
0.0
 10
47.1773
 20
-116.1653
 30
0.0
 10
47.1773
 20
-116.1653
 30
0.0
 10
7.0675
 20
-116.1653
 30
0.0
 10
-34.0045
 20
-124.1656
 30
0.0
 10
-73.4708
 20
-130.843
 30
0.0
 10
-73.4708
 20
-130.843
 30
0.0
 10
-97.1289
 20
-134.8458
 30
0.0
 10
-120.7859
 20
-138.6034
 30
0.0
 10
-144.6315
 20
-141.329
 30
0.0
 10
-144.6315
 20
-141.329
 30
0.0
 10
-164.4065
 20
-143.5893
 30
0.0
 10
-184.2118
 20
-145.1341
 30
0.0
 10
-204.0748
 20
-145.7982
 30
0.0
 10
-204.0748
 20
-145.7982
 30
0.0
 10
-205.1168
 20
-154.6866
 30
0.0
 10
-206.8661
 20
-163.4724
 30
0.0
 10
-209.5314
 20
-172.1495
 30
0.0
 10
-209.5314
 20
-172.1495
 30
0.0
 10
-212.9561
 20
-183.2989
 30
0.0
 10
-217.6606
 20
-193.0663
 30
0.0
 10
-222.5942
 20
-203.5419
 30
0.0
 10
-222.5942
 20
-203.5419
 30
0.0
 10
-229.6912
 20
-218.6112
 30
0.0
 10
-232.8227
 20
-229.216
 30
0.0
 10
-232.8227
 20
-246.1653
 30
0.0
 10
-232.8227
 20
-246.1653
 30
0.0
 10
-232.8227
 20
-263.1146
 30
0.0
 10
-229.6912
 20
-273.7194
 30
0.0
 10
-222.5942
 20
-288.7887
 30
0.0
 10
-222.5942
 20
-288.7887
 30
0.0
 10
-217.6606
 20
-299.2643
 30
0.0
 10
-212.9561
 20
-309.0317
 30
0.0
 10
-209.5314
 20
-320.1811
 30
0.0
 10
-209.5314
 20
-320.1811
 30
0.0
 10
-206.8661
 20
-328.8582
 30
0.0
 10
-205.1168
 20
-337.644
 30
0.0
 10
-204.0748
 20
-346.5324
 30
0.0
  0
SPLINE
  5
64
330
1F
100
AcDbEntity
  8
Layer 1
 62
   250
370
    20
100
AcDbSpline
210
0.0
220
0.0
230
1.0
 70
    11
 71
     3
 72
   100
 73
    96
 74
     0
 42
0.0000000001
 43
0.0000000001
 40
0.0
 40
0.0
 40
0.0
 40
0.0
 40
0.04
 40
0.04
 40
0.04
 40
0.04
 40
0.08
 40
0.08
 40
0.08
 40
0.08
 40
0.12
 40
0.12
 40
0.12
 40
0.12
 40
0.16
 40
0.16
 40
0.16
 40
0.16
 40
0.2
 40
0.2
 40
0.2
 40
0.2
 40
0.24
 40
0.24
 40
0.24
 40
0.24
 40
0.28
 40
0.28
 40
0.28
 40
0.28
 40
0.32
 40
0.32
 40
0.32
 40
0.32
 40
0.36
 40
0.36
 40
0.36
 40
0.36
 40
0.4
 40
0.4
 40
0.4
 40
0.4
 40
0.44
 40
0.44
 40
0.44
 40
0.44
 40
0.48
 40
0.48
 40
0.48
 40
0.48
 40
0.52
 40
0.52
 40
0.52
 40
0.52
 40
0.56
 40
0.56
 40
0.56
 40
0.56
 40
0.6
 40
0.6
 40
0.6
 40
0.6
 40
0.64
 40
0.64
 40
0.64
 40
0.64
 40
0.68
 40
0.68
 40
0.68
 40
0.68
 40
0.72
 40
0.72
 40
0.72
 40
0.72
 40
0.76
 40
0.76
 40
0.76
 40
0.76
 40
0.8
 40
0.8
 40
0.8
 40
0.8
 40
0.84
 40
0.84
 40
0.84
 40
0.84
 40
0.88
 40
0.88
 40
0.88
 40
0.88
 40
0.92
 40
0.92
 40
0.92
 40
0.92
 40
1.0
 40
1.0
 40
1.0
 40
1.0
 10
281.3763
 20
-327.2831
 30
0.0
 10
282.3267
 20
-322.917
 30
0.0
 10
283.4529
 20
-318.5885
 30
0.0
 10
284.7676
 20
-314.3086
 30
0.0
 10
284.7676
 20
-314.3086
 30
0.0
 10
288.4294
 20
-302.3873
 30
0.0
 10
293.5631
 20
-291.5036
 30
0.0
 10
298.855
 20
-280.2673
 30
0.0
 10
298.855
 20
-280.2673
 30
0.0
 10
304.6285
 20
-268.0083
 30
0.0
 10
307.1773
 20
-259.823
 30
0.0
 10
307.1773
 20
-246.1653
 30
0.0
 10
307.1773
 20
-246.1653
 30
0.0
 10
307.1773
 20
-232.5076
 30
0.0
 10
304.6285
 20
-224.3223
 30
0.0
 10
298.855
 20
-212.0633
 30
0.0
 10
298.855
 20
-212.0633
 30
0.0
 10
293.5631
 20
-200.827
 30
0.0
 10
288.4294
 20
-189.9433
 30
0.0
 10
284.7676
 20
-178.022
 30
0.0
 10
284.7676
 20
-178.022
 30
0.0
 10
283.4529
 20
-173.7421
 30
0.0
 10
282.3267
 20
-169.4136
 30
0.0
 10
281.3763
 20
-165.0475
 30
0.0
 10
281.3763
 20
-165.0475
 30
0.0
 10
266.4561
 20
-164.2022
 30
0.0
 10
251.5629
 20
-162.8968
 30
0.0
 10
236.7149
 20
-161.1996
 30
0.0
 10
236.7149
 20
-161.1996
 30
0.0
 10
212.5296
 20
-158.4352
 30
0.0
 10
188.4857
 20
-154.6228
 30
0.0
 10
164.489
 20
-150.5627
 30
0.0
 10
164.489
 20
-150.5627
 30
0.0
 10
126.0022
 20
-144.051
 30
0.0
 10
86.314
 20
-136.1653
 30
0.0
 10
47.1773
 20
-136.1653
 30
0.0
 10
47.1773
 20
-136.1653
 30
0.0
 10
8.0406
 20
-136.1653
 30
0.0
 10
-31.6476
 20
-144.051
 30
0.0
 10
-70.1344
 20
-150.5627
 30
0.0
 10
-70.1344
 20
-150.5627
 30
0.0
 10
-94.1311
 20
-154.6228
 30
0.0
 10
-118.175
 20
-158.4352
 30
0.0
 10
-142.3603
 20
-161.1996
 30
0.0
 10
-142.3603
 20
-161.1996
 30
0.0
 10
-157.2083
 20
-162.8968
 30
0.0
 10
-172.1015
 20
-164.2022
 30
0.0
 10
-187.0217
 20
-165.0475
 30
0.0
 10
-187.0217
 20
-165.0475
 30
0.0
 10
-187.9721
 20
-169.4136
 30
0.0
 10
-189.0983
 20
-173.7421
 30
0.0
 10
-190.413
 20
-178.022
 30
0.0
 10
-190.413
 20
-178.022
 30
0.0
 10
-194.0748
 20
-189.9433
 30
0.0
 10
-199.2085
 20
-200.827
 30
0.0
 10
-204.5004
 20
-212.0633
 30
0.0
 10
-204.5004
 20
-212.0633
 30
0.0
 10
-210.2739
 20
-224.3223
 30
0.0
 10
-212.8227
 20
-232.5076
 30
0.0
 10
-212.8227
 20
-246.1653
 30
0.0
 10
-212.8227
 20
-246.1653
 30
0.0
 10
-212.8227
 20
-259.823
 30
0.0
 10
-210.2739
 20
-268.0083
 30
0.0
 10
-204.5004
 20
-280.2673
 30
0.0
 10
-204.5004
 20
-280.2673
 30
0.0
 10
-199.2085
 20
-291.5036
 30
0.0
 10
-194.0748
 20
-302.3873
 30
0.0
 10
-190.413
 20
-314.3086
 30
0.0
 10
-190.413
 20
-314.3086
 30
0.0
 10
-189.0983
 20
-318.5885
 30
0.0
 10
-187.9721
 20
-322.917
 30
0.0
 10
-187.0217
 20
-327.2831
 30
0.0
 10
-187.0217
 20
-327.2831
 30
0.0
 10
-172.1015
 20
-328.1284
 30
0.0
 10
-157.2083
 20
-329.4338
 30
0.0
 10
-142.3603
 20
-331.131
 30
0.0
 10
-142.3603
 20
-331.131
 30
0.0
 10
-118.175
 20
-333.8954
 30
0.0
 10
-94.1311
 20
-337.7078
 30
0.0
 10
-70.1344
 20
-341.7679
 30
0.0
 10
-70.1344
 20
-341.7679
 30
0.0
 10
-31.6476
 20
-348.2796
 30
0.0
 10
8.0406
 20
-356.1653
 30
0.0
 10
47.1773
 20
-356.1653
 30
0.0
 10
47.1773
 20
-356.1653
 30
0.0
 10
86.314
 20
-356.1653
 30
0.0
 10
126.0022
 20
-348.2796
 30
0.0
 10
164.489
 20
-341.7679
 30
0.0
 10
164.489
 20
-341.7679
 30
0.0
 10
188.4857
 20
-337.7078
 30
0.0
 10
212.5296
 20
-333.8954
 30
0.0
 10
236.7149
 20
-331.131
 30
0.0
 10
236.7149
 20
-331.131
 30
0.0
 10
251.5629
 20
-329.4338
 30
0.0
 10
266.4561
 20
-328.1284
 30
0.0
 10
281.3763
 20
-327.2831
 30
0.0
  0
SPLINE
  5
65
330
1F
100
AcDbEntity
  8
Layer 1
 62
   250
370
    18
100
AcDbSpline
210
0.0
220
0.0
230
1.0
 70
    11
 71
     3
 72
    24
 73
    20
 74
     0
 42
0.0000000001
 43
0.0000000001
 40
0.0
 40
0.0
 40
0.0
 40
0.0
 40
0.1666666666666667
 40
0.1666666666666667
 40
0.1666666666666667
 40
0.1666666666666667
 40
0.3333333333333333
 40
0.3333333333333333
 40
0.3333333333333333
 40
0.3333333333333333
 40
0.5
 40
0.5
 40
0.5
 40
0.5
 40
0.6666666666666666
 40
0.6666666666666666
 40
0.6666666666666666
 40
0.6666666666666666
 40
1.0
 40
1.0
 40
1.0
 40
1.0
 10
-302.8226
 20
-46.1653
 30
0.0
 10
-302.8226
 20
-46.1653
 30
0.0
 10
-302.8226
 20
-446.1653
 30
0.0
 10
-302.8226
 20
-446.1653
 30
0.0
 10
-302.8226
 20
-446.1653
 30
0.0
 10
-302.8226
 20
-446.1653
 30
0.0
 10
397.1772
 20
-446.1653
 30
0.0
 10
397.1772
 20
-446.1653
 30
0.0
 10
397.1772
 20
-446.1653
 30
0.0
 10
397.1772
 20
-446.1653
 30
0.0
 10
397.1772
 20
-46.1653
 30
0.0
 10
397.1772
 20
-46.1653
 30
0.0
 10
397.1772
 20
-46.1653
 30
0.0
 10
397.1772
 20
-46.1653
 30
0.0
 10
-302.8226
 20
-46.1653
 30
0.0
 10
-302.8226
 20
-46.1653
 30
0.0
 10
-302.8226
 20
-46.1653
 30
0.0
 10
-302.8226
 20
-46.1653
 30
0.0
 10
-302.8226
 20
-46.1653
 30
0.0
 10
-302.8226
 20
-46.1653
 30
0.0
  0
ENDSEC
  0
SECTION
  2
OBJECTS
  0
DICTIONARY
  5
C
330
0
100
AcDbDictionary
281
     1
  3
ACAD_GROUP
350
D
  3
ACAD_LAYOUT
350
1A
  3
ACAD_MATERIAL
350
3B
  3
ACAD_MLEADERSTYLE
350
87
  3
ACAD_MLINESTYLE
350
17
  3
ACAD_PLOTSETTINGS
350
19
  3
ACAD_PLOTSTYLENAME
350
E
  3
ACAD_TABLESTYLE
350
86
  3
ACAD_VISUALSTYLE
350
2A
  0
DICTIONARY
  5
D
102
{ACAD_REACTORS
330
C
102
}
330
C
100
AcDbDictionary
281
     1
  0
DICTIONARY
  5
1A
102
{ACAD_REACTORS
330
C
102
}
330
C
100
AcDbDictionary
281
     1
  3
Layout1
350
1E
  3
Layout2
350
26
  3
Model
350
22
  0
DICTIONARY
  5
3B
102
{ACAD_REACTORS
330
C
102
}
330
C
100
AcDbDictionary
281
     1
  3
ByBlock
350
3D
  3
ByLayer
350
3C
  3
Global
350
3E
  0
DICTIONARY
  5
87
102
{ACAD_REACTORS
330
C
102
}
330
C
100
AcDbDictionary
281
     1
  0
DICTIONARY
  5
17
102
{ACAD_REACTORS
330
C
102
}
330
C
100
AcDbDictionary
281
     1
  3
Standard
350
18
  0
DICTIONARY
  5
19
102
{ACAD_REACTORS
330
C
102
}
330
C
100
AcDbDictionary
281
     1
  0
ACDBDICTIONARYWDFLT
  5
E
102
{ACAD_REACTORS
330
C
102
}
330
C
100
AcDbDictionary
281
     1
  3
Normal
350
F
100
AcDbDictionaryWithDefault
340
F
  0
DICTIONARY
  5
86
102
{ACAD_REACTORS
330
C
102
}
330
C
100
AcDbDictionary
281
     1
  0
DICTIONARY
  5
2A
102
{ACAD_REACTORS
330
C
102
}
330
C
100
AcDbDictionary
281
     1
  3
2dWireframe
350
2F
  3
3D Hidden
350
31
  3
3dWireframe
350
30
  3
Basic
350
32
  3
Brighten
350
36
  3
ColorChange
350
3A
  3
Conceptual
350
34
  3
Dim
350
35
  3
Facepattern
350
39
  3
Flat
350
2B
  3
FlatWithEdges
350
2C
  3
Gouraud
350
2D
  3
GouraudWithEdges
350
2E
  3
Linepattern
350
38
  3
Realistic
350
33
  3
Thicken
350
37
  0
LAYOUT
  5
1E
102
{ACAD_REACTORS
330
1A
102
}
330
1A
100
AcDbPlotSettings
  1

  2
none_device
  4

  6

 40
0.0
 41
0.0
 42
0.0
 43
0.0
 44
0.0
 45
0.0
 46
0.0
 47
0.0
 48
0.0
 49
0.0
140
0.0
141
0.0
142
1.0
143
1.0
 70
   688
 72
     0
 73
     0
 74
     5
  7

 75
    16
 76
     0
 77
     2
 78
   300
147
1.0
148
0.0
149
0.0
100
AcDbLayout
  1
Layout1
 70
     1
 71
     1
 10
0.0
 20
0.0
 11
12.0
 21
9.0
 12
0.0
 22
0.0
 32
0.0
 14
1.000000000000000E+20
 24
1.000000000000000E+20
 34
1.000000000000000E+20
 15
-1.000000000000000E+20
 25
-1.000000000000000E+20
 35
-1.000000000000000E+20
146
0.0
 13
0.0
 23
0.0
 33
0.0
 16
1.0
 26
0.0
 36
0.0
 17
0.0
 27
1.0
 37
0.0
 76
     0
330
1B
  0
LAYOUT
  5
26
102
{ACAD_REACTORS
330
1A
102
}
330
1A
100
AcDbPlotSettings
  1

  2
none_device
  4

  6

 40
0.0
 41
0.0
 42
0.0
 43
0.0
 44
0.0
 45
0.0
 46
0.0
 47
0.0
 48
0.0
 49
0.0
140
0.0
141
0.0
142
1.0
143
1.0
 70
   688
 72
     0
 73
     0
 74
     5
  7

 75
    16
 76
     0
 77
     2
 78
   300
147
1.0
148
0.0
149
0.0
100
AcDbLayout
  1
Layout2
 70
     1
 71
     2
 10
0.0
 20
0.0
 11
0.0
 21
0.0
 12
0.0
 22
0.0
 32
0.0
 14
0.0
 24
0.0
 34
0.0
 15
0.0
 25
0.0
 35
0.0
146
0.0
 13
0.0
 23
0.0
 33
0.0
 16
1.0
 26
0.0
 36
0.0
 17
0.0
 27
1.0
 37
0.0
 76
     0
330
23
  0
LAYOUT
  5
22
102
{ACAD_REACTORS
330
1A
102
}
330
1A
100
AcDbPlotSettings
  1

  2
none_device
  4

  6

 40
0.0
 41
0.0
 42
0.0
 43
0.0
 44
0.0
 45
0.0
 46
0.0
 47
0.0
 48
0.0
 49
0.0
140
0.0
141
0.0
142
1.0
143
1.0
 70
  1712
 72
     0
 73
     0
 74
     0
  7

 75
     0
 76
     0
 77
     2
 78
   300
147
1.0
148
0.0
149
0.0
100
AcDbLayout
  1
Model
 70
     1
 71
     0
 10
0.0
 20
0.0
 11
12.0
 21
9.0
 12
0.0
 22
0.0
 32
0.0
 14
-302.9126
 24
-446.2553
 34
0.0
 15
397.2672
 25
-46.0753
 35
0.0
146
0.0
 13
0.0
 23
0.0
 33
0.0
 16
1.0
 26
0.0
 36
0.0
 17
0.0
 27
1.0
 37
0.0
 76
     0
330
1F
331
29
  0
MATERIAL
  5
3D
102
{ACAD_REACTORS
330
3B
102
}
330
3B
100
AcDbMaterial
  1
ByBlock
 72
     1
 94
      127
  0
MATERIAL
  5
3C
102
{ACAD_REACTORS
330
3B
102
}
330
3B
100
AcDbMaterial
  1
ByLayer
 72
     1
 94
      127
  0
MATERIAL
  5
3E
102
{ACAD_REACTORS
330
3B
102
}
330
3B
100
AcDbMaterial
  1
Global
 72
     1
 94
      127
  0
MLINESTYLE
  5
18
102
{ACAD_REACTORS
330
17
102
}
330
17
100
AcDbMlineStyle
  2
Standard
 70
     0
  3

 62
   256
 51
90.0
 52
90.0
 71
     2
 49
0.5
 62
   256
  6
BYLAYER
 49
-0.5
 62
   256
  6
BYLAYER
  0
ACDBPLACEHOLDER
  5
F
102
{ACAD_REACTORS
330
E
102
}
330
E
  0
VISUALSTYLE
  5
2F
102
{ACAD_REACTORS
330
2A
102
}
102
{ACAD_XDICTIONARY
360
6E
102
}
330
2A
100
AcDbVisualStyle
  2
2dWireframe
 70
     4
 71
     0
 72
     2
 73
     0
 90
        0
 40
-0.6
 41
-30.0
 62
     5
 63
     7
421
 16777215
 74
     1
 91
        4
 64
     7
 65
   257
 75
     1
175
     1
 42
1.0
 92
        0
 66
   257
 43
1.0
 76
     1
 77
     6
 78
     2
 67
     7
 79
     5
170
     0
171
     0
290
     0
174
     0
 93
        1
 44
0.0
173
     0
291
     0
 45
0.0
  0
VISUALSTYLE
  5
31
102
{ACAD_REACTORS
330
2A
102
}
102
{ACAD_XDICTIONARY
360
72
102
}
330
2A
100
AcDbVisualStyle
  2
3D Hidden
 70
     6
 71
     1
 72
     2
 73
     2
 90
        0
 40
-0.6
 41
-30.0
 62
     5
 63
     7
421
 16777215
 74
     2
 91
        2
 64
     7
 65
   257
 75
     2
175
     1
 42
40.0
 92
        0
 66
   257
 43
1.0
 76
     1
 77
     6
 78
     2
 67
     7
 79
     3
170
     0
171
     0
290
     0
174
     0
 93
        1
 44
0.0
173
     0
291
     0
 45
0.0
  0
VISUALSTYLE
  5
30
102
{ACAD_REACTORS
330
2A
102
}
102
{ACAD_XDICTIONARY
360
70
102
}
330
2A
100
AcDbVisualStyle
  2
3dWireframe
 70
     5
 71
     0
 72
     2
 73
     0
 90
        0
 40
-0.6
 41
-30.0
 62
     5
 63
     7
421
 16777215
 74
     1
 91
        4
 64
     7
 65
   257
 75
     1
175
     1
 42
1.0
 92
        0
 66
   257
 43
1.0
 76
     1
 77
     6
 78
     2
 67
     7
 79
     5
170
     0
171
     0
290
     0
174
     0
 93
        1
 44
0.0
173
     0
291
     0
 45
0.0
  0
VISUALSTYLE
  5
32
102
{ACAD_REACTORS
330
2A
102
}
102
{ACAD_XDICTIONARY
360
74
102
}
330
2A
100
AcDbVisualStyle
  2
Basic
 70
     7
 71
     1
 72
     0
 73
     1
 90
        0
 40
-0.6
 41
-30.0
 62
     5
 63
     7
421
 16777215
 74
     0
 91
        4
 64
     7
 65
   257
 75
     1
175
     1
 42
1.0
 92
        8
 66
     7
 43
1.0
 76
     1
 77
     6
 78
     2
 67
     7
 79
     5
170
     0
171
     0
290
     0
174
     0
 93
        1
 44
0.0
173
     0
291
     1
 45
0.0
  0
VISUALSTYLE
  5
36
102
{ACAD_REACTORS
330
2A
102
}
102
{ACAD_XDICTIONARY
360
7C
102
}
330
2A
100
AcDbVisualStyle
  2
Brighten
 70
    12
 71
     2
 72
     2
 73
     0
 90
        0
 40
-0.6
 41
-30.0
 62
     5
 63
     7
421
 16777215
 74
     1
 91
        4
 64
     7
 65
   257
 75
     1
175
     1
 42
1.0
 92
        8
 66
     7
 43
1.0
 76
     1
 77
     6
 78
     2
 67
     7
 79
     5
170
     0
171
     0
290
     0
174
     0
 93
        1
 44
50.0
173
     0
291
     1
 45
0.0
  0
VISUALSTYLE
  5
3A
102
{ACAD_REACTORS
330
2A
102
}
102
{ACAD_XDICTIONARY
360
84
102
}
330
2A
100
AcDbVisualStyle
  2
ColorChange
 70
    16
 71
     2
 72
     2
 73
     3
 90
        0
 40
-0.6
 41
-30.0
 62
     5
 63
     8
421
  8421504
 74
     1
 91
        4
 64
     7
 65
   257
 75
     1
175
     1
 42
1.0
 92
        8
 66
     8
424
  8421504
 43
1.0
 76
     1
 77
     6
 78
     2
 67
     7
 79
     5
170
     0
171
     0
290
     0
174
     0
 93
        1
 44
0.0
173
     0
291
     1
 45
0.0
  0
VISUALSTYLE
  5
34
102
{ACAD_REACTORS
330
2A
102
}
102
{ACAD_XDICTIONARY
360
78
102
}
330
2A
100
AcDbVisualStyle
  2
Conceptual
 70
     9
 71
     3
 72
     2
 73
     0
 90
        0
 40
-0.6
 41
-30.0
 62
     5
 63
     7
421
 16777215
 74
     2
 91
        2
 64
     7
 65
   257
 75
     1
175
     1
 42
40.0
 92
        8
 66
     7
 43
1.0
 76
     1
 77
     6
 78
     2
 67
     7
 79
     3
170
     0
171
     0
290
     0
174
     0
 93
        1
 44
0.0
173
     0
291
     0
 45
0.0
  0
VISUALSTYLE
  5
35
102
{ACAD_REACTORS
330
2A
102
}
102
{ACAD_XDICTIONARY
360
7A
102
}
330
2A
100
AcDbVisualStyle
  2
Dim
 70
    11
 71
     2
 72
     2
 73
     0
 90
        0
 40
-0.6
 41
-30.0
 62
     5
 63
     7
421
 16777215
 74
     1
 91
        4
 64
     7
 65
   257
 75
     1
175
     1
 42
1.0
 92
        8
 66
     7
 43
1.0
 76
     1
 77
     6
 78
     2
 67
     7
 79
     5
170
     0
171
     0
290
     0
174
     0
 93
        1
 44
-50.0
173
     0
291
     1
 45
0.0
  0
VISUALSTYLE
  5
39
102
{ACAD_REACTORS
330
2A
102
}
102
{ACAD_XDICTIONARY
360
82
102
}
330
2A
100
AcDbVisualStyle
  2
Facepattern
 70
    15
 71
     2
 72
     2
 73
     0
 90
        0
 40
-0.6
 41
-30.0
 62
     5
 63
     7
421
 16777215
 74
     1
 91
        4
 64
     7
 65
   257
 75
     1
175
     1
 42
1.0
 92
        8
 66
     7
 43
1.0
 76
     1
 77
     6
 78
     2
 67
     7
 79
     5
170
     0
171
     0
290
     0
174
     0
 93
        1
 44
0.0
173
     0
291
     1
 45
0.0
  0
VISUALSTYLE
  5
2B
102
{ACAD_REACTORS
330
2A
102
}
102
{ACAD_XDICTIONARY
360
66
102
}
330
2A
100
AcDbVisualStyle
  2
Flat
 70
     0
 71
     2
 72
     1
 73
     1
 90
        2
 40
-0.6
 41
30.0
 62
     5
 63
     7
421
 16777215
 74
     0
 91
        4
 64
     7
 65
   257
 75
     1
175
     1
 42
1.0
 92
        8
 66
     7
 43
1.0
 76
     1
 77
     6
 78
     2
 67
     7
 79
     5
170
     0
171
     0
290
     0
174
     0
 93
       13
 44
0.0
173
     0
291
     1
 45
0.0
  0
VISUALSTYLE
  5
2C
102
{ACAD_REACTORS
330
2A
102
}
102
{ACAD_XDICTIONARY
360
68
102
}
330
2A
100
AcDbVisualStyle
  2
FlatWithEdges
 70
     1
 71
     2
 72
     1
 73
     1
 90
        2
 40
-0.6
 41
30.0
 62
     5
 63
     7
421
 16777215
 74
     1
 91
        4
 64
     7
 65
   257
 75
     1
175
     1
 42
1.0
 92
        0
 66
   257
 43
1.0
 76
     1
 77
     6
 78
     2
 67
     7
 79
     5
170
     0
171
     0
290
     0
174
     0
 93
       13
 44
0.0
173
     0
291
     1
 45
0.0
  0
VISUALSTYLE
  5
2D
102
{ACAD_REACTORS
330
2A
102
}
102
{ACAD_XDICTIONARY
360
6A
102
}
330
2A
100
AcDbVisualStyle
  2
Gouraud
 70
     2
 71
     2
 72
     2
 73
     1
 90
        2
 40
-0.6
 41
30.0
 62
     5
 63
     7
421
 16777215
 74
     0
 91
        4
 64
     7
 65
   257
 75
     1
175
     1
 42
1.0
 92
        0
 66
     7
 43
1.0
 76
     1
 77
     6
 78
     2
 67
     7
 79
     5
170
     0
171
     0
290
     0
174
     0
 93
       13
 44
0.0
173
     0
291
     1
 45
0.0
  0
VISUALSTYLE
  5
2E
102
{ACAD_REACTORS
330
2A
102
}
102
{ACAD_XDICTIONARY
360
6C
102
}
330
2A
100
AcDbVisualStyle
  2
GouraudWithEdges
 70
     3
 71
     2
 72
     2
 73
     1
 90
        2
 40
-0.6
 41
30.0
 62
     5
 63
     7
421
 16777215
 74
     1
 91
        4
 64
     7
 65
   257
 75
     1
175
     1
 42
1.0
 92
        0
 66
   257
 43
1.0
 76
     1
 77
     6
 78
     2
 67
     7
 79
     5
170
     0
171
     0
290
     0
174
     0
 93
       13
 44
0.0
173
     0
291
     1
 45
0.0
  0
VISUALSTYLE
  5
38
102
{ACAD_REACTORS
330
2A
102
}
102
{ACAD_XDICTIONARY
360
80
102
}
330
2A
100
AcDbVisualStyle
  2
Linepattern
 70
    14
 71
     2
 72
     2
 73
     0
 90
        0
 40
-0.6
 41
-30.0
 62
     5
 63
     7
421
 16777215
 74
     1
 91
        4
 64
     7
 65
   257
 75
     7
175
     7
 42
1.0
 92
        8
 66
     7
 43
1.0
 76
     1
 77
     6
 78
     2
 67
     7
 79
     5
170
     0
171
     0
290
     0
174
     0
 93
        1
 44
0.0
173
     0
291
     1
 45
0.0
  0
VISUALSTYLE
  5
33
102
{ACAD_REACTORS
330
2A
102
}
102
{ACAD_XDICTIONARY
360
76
102
}
330
2A
100
AcDbVisualStyle
  2
Realistic
 70
     8
 71
     2
 72
     2
 73
     0
 90
        0
 40
-0.6
 41
-30.0
 62
     5
 63
     7
421
 16777215
 74
     1
 91
        0
 64
     7
 65
   257
 75
     1
175
     1
 42
1.0
 92
        8
 66
     8
424
  7895160
 43
1.0
 76
     1
 77
     6
 78
     2
 67
     7
 79
     5
170
     0
171
     0
290
     0
174
     0
 93
       13
 44
0.0
173
     0
291
     0
 45
0.0
  0
VISUALSTYLE
  5
37
102
{ACAD_REACTORS
330
2A
102
}
102
{ACAD_XDICTIONARY
360
7E
102
}
330
2A
100
AcDbVisualStyle
  2
Thicken
 70
    13
 71
     2
 72
     2
 73
     0
 90
        0
 40
-0.6
 41
-30.0
 62
     5
 63
     7
421
 16777215
 74
     1
 91
        4
 64
     7
 65
   257
 75
     1
175
     1
 42
1.0
 92
       12
 66
     7
 43
1.0
 76
     1
 77
     6
 78
     2
 67
     7
 79
     5
170
     0
171
     0
290
     0
174
     0
 93
        1
 44
0.0
173
     0
291
     1
 45
0.0
  0
DICTIONARY
  5
6E
330
2F
100
AcDbDictionary
280
     1
281
     1
  3
ACAD_XREC_ROUNDTRIP
360
6F
  0
DICTIONARY
  5
72
330
31
100
AcDbDictionary
280
     1
281
     1
  3
ACAD_XREC_ROUNDTRIP
360
73
  0
DICTIONARY
  5
70
330
30
100
AcDbDictionary
280
     1
281
     1
  3
ACAD_XREC_ROUNDTRIP
360
71
  0
DICTIONARY
  5
74
330
32
100
AcDbDictionary
280
     1
281
     1
  3
ACAD_XREC_ROUNDTRIP
360
75
  0
DICTIONARY
  5
7C
330
36
100
AcDbDictionary
280
     1
281
     1
  3
ACAD_XREC_ROUNDTRIP
360
7D
  0
DICTIONARY
  5
84
330
3A
100
AcDbDictionary
280
     1
281
     1
  3
ACAD_XREC_ROUNDTRIP
360
85
  0
DICTIONARY
  5
78
330
34
100
AcDbDictionary
280
     1
281
     1
  3
ACAD_XREC_ROUNDTRIP
360
79
  0
DICTIONARY
  5
7A
330
35
100
AcDbDictionary
280
     1
281
     1
  3
ACAD_XREC_ROUNDTRIP
360
7B
  0
DICTIONARY
  5
82
330
39
100
AcDbDictionary
280
     1
281
     1
  3
ACAD_XREC_ROUNDTRIP
360
83
  0
DICTIONARY
  5
66
330
2B
100
AcDbDictionary
280
     1
281
     1
  3
ACAD_XREC_ROUNDTRIP
360
67
  0
DICTIONARY
  5
68
330
2C
100
AcDbDictionary
280
     1
281
     1
  3
ACAD_XREC_ROUNDTRIP
360
69
  0
DICTIONARY
  5
6A
330
2D
100
AcDbDictionary
280
     1
281
     1
  3
ACAD_XREC_ROUNDTRIP
360
6B
  0
DICTIONARY
  5
6C
330
2E
100
AcDbDictionary
280
     1
281
     1
  3
ACAD_XREC_ROUNDTRIP
360
6D
  0
DICTIONARY
  5
80
330
38
100
AcDbDictionary
280
     1
281
     1
  3
ACAD_XREC_ROUNDTRIP
360
81
  0
DICTIONARY
  5
76
330
33
100
AcDbDictionary
280
     1
281
     1
  3
ACAD_XREC_ROUNDTRIP
360
77
  0
DICTIONARY
  5
7E
330
37
100
AcDbDictionary
280
     1
281
     1
  3
ACAD_XREC_ROUNDTRIP
360
7F
  0
XRECORD
  5
6F
102
{ACAD_REACTORS
330
6E
102
}
330
6E
100
AcDbXrecord
280
     1
102
RTVSPropertyOp0
 70
     1
102
RTVSPropertyOp1
 70
     1
102
RTVSPropertyOp2
 70
     1
102
RTVSPropertyOp3
 70
     1
102
RTVSPropertyOp4
 70
     1
102
RTVSPropertyOp5
 70
     1
102
RTVSPropertyOp6
 70
     1
102
RTVSPropertyOp7
 70
     1
102
RTVSPropertyOp8
 70
     1
102
RTVSPropertyOp9
 70
     1
102
RTVSPropertyOp10
 70
     1
102
RTVSPropertyOp11
 70
     1
102
RTVSPropertyOp12
 70
     1
102
RTVSPropertyOp13
 70
     1
102
RTVSPropertyOp14
 70
     1
102
RTVSPropertyOp15
 70
     1
102
RTVSPropertyOp16
 70
     1
102
RTVSPropertyOp17
 70
     1
102
RTVSPropertyOp18
 70
     1
102
RTVSPropertyOp19
 70
     1
102
RTVSPropertyOp20
 70
     1
102
RTVSPropertyOp21
 70
     1
102
RTVSPropertyOp22
 70
     1
102
RTVSPropertyOp23
 70
     1
102
RTVSPropertyOp24
 70
     1
102
RTVSPropertyOp25
 70
     1
102
RTVSPropertyOp26
 70
     1
102
RTVSPropertyOp27
 70
     1
  0
XRECORD
  5
73
102
{ACAD_REACTORS
330
72
102
}
330
72
100
AcDbXrecord
280
     1
102
RTVSPropertyOp0
 70
     1
102
RTVSPropertyOp1
 70
     1
102
RTVSPropertyOp2
 70
     1
102
RTVSPropertyOp3
 70
     1
102
RTVSPropertyOp4
 70
     1
102
RTVSPropertyOp5
 70
     1
102
RTVSPropertyOp6
 70
     1
102
RTVSPropertyOp7
 70
     1
102
RTVSPropertyOp8
 70
     1
102
RTVSPropertyOp9
 70
     1
102
RTVSPropertyOp10
 70
     1
102
RTVSPropertyOp11
 70
     1
102
RTVSPropertyOp12
 70
     1
102
RTVSPropertyOp13
 70
     1
102
RTVSPropertyOp14
 70
     1
102
RTVSPropertyOp15
 70
     1
102
RTVSPropertyOp16
 70
     1
102
RTVSPropertyOp17
 70
     1
102
RTVSPropertyOp18
 70
     1
102
RTVSPropertyOp19
 70
     1
102
RTVSPropertyOp20
 70
     1
102
RTVSPropertyOp21
 70
     1
102
RTVSPropertyOp22
 70
     1
102
RTVSPropertyOp23
 70
     1
102
RTVSPropertyOp24
 70
     1
102
RTVSPropertyOp25
 70
     1
102
RTVSPropertyOp26
 70
     1
102
RTVSPropertyOp27
 70
     1
  0
XRECORD
  5
71
102
{ACAD_REACTORS
330
70
102
}
330
70
100
AcDbXrecord
280
     1
102
RTVSPropertyOp0
 70
     1
102
RTVSPropertyOp1
 70
     1
102
RTVSPropertyOp2
 70
     1
102
RTVSPropertyOp3
 70
     1
102
RTVSPropertyOp4
 70
     1
102
RTVSPropertyOp5
 70
     1
102
RTVSPropertyOp6
 70
     1
102
RTVSPropertyOp7
 70
     1
102
RTVSPropertyOp8
 70
     1
102
RTVSPropertyOp9
 70
     1
102
RTVSPropertyOp10
 70
     1
102
RTVSPropertyOp11
 70
     1
102
RTVSPropertyOp12
 70
     1
102
RTVSPropertyOp13
 70
     1
102
RTVSPropertyOp14
 70
     1
102
RTVSPropertyOp15
 70
     1
102
RTVSPropertyOp16
 70
     1
102
RTVSPropertyOp17
 70
     1
102
RTVSPropertyOp18
 70
     1
102
RTVSPropertyOp19
 70
     1
102
RTVSPropertyOp20
 70
     1
102
RTVSPropertyOp21
 70
     1
102
RTVSPropertyOp22
 70
     1
102
RTVSPropertyOp23
 70
     1
102
RTVSPropertyOp24
 70
     1
102
RTVSPropertyOp25
 70
     1
102
RTVSPropertyOp26
 70
     1
102
RTVSPropertyOp27
 70
     1
  0
XRECORD
  5
75
102
{ACAD_REACTORS
330
74
102
}
330
74
100
AcDbXrecord
280
     1
102
RTVSPropertyOp0
 70
     1
102
RTVSPropertyOp1
 70
     1
102
RTVSPropertyOp2
 70
     1
102
RTVSPropertyOp3
 70
     1
102
RTVSPropertyOp4
 70
     1
102
RTVSPropertyOp5
 70
     1
102
RTVSPropertyOp6
 70
     1
102
RTVSPropertyOp7
 70
     1
102
RTVSPropertyOp8
 70
     1
102
RTVSPropertyOp9
 70
     1
102
RTVSPropertyOp10
 70
     1
102
RTVSPropertyOp11
 70
     1
102
RTVSPropertyOp12
 70
     1
102
RTVSPropertyOp13
 70
     1
102
RTVSPropertyOp14
 70
     1
102
RTVSPropertyOp15
 70
     1
102
RTVSPropertyOp16
 70
     1
102
RTVSPropertyOp17
 70
     1
102
RTVSPropertyOp18
 70
     1
102
RTVSPropertyOp19
 70
     1
102
RTVSPropertyOp20
 70
     1
102
RTVSPropertyOp21
 70
     1
102
RTVSPropertyOp22
 70
     1
102
RTVSPropertyOp23
 70
     1
102
RTVSPropertyOp24
 70
     1
102
RTVSPropertyOp25
 70
     1
102
RTVSPropertyOp26
 70
     1
102
RTVSPropertyOp27
 70
     1
  0
XRECORD
  5
7D
102
{ACAD_REACTORS
330
7C
102
}
330
7C
100
AcDbXrecord
280
     1
102
RTVSPropertyOp0
 70
     1
102
RTVSPropertyOp1
 70
     1
102
RTVSPropertyOp2
 70
     1
102
RTVSPropertyOp3
 70
     1
102
RTVSPropertyOp4
 70
     1
102
RTVSPropertyOp5
 70
     1
102
RTVSPropertyOp6
 70
     1
102
RTVSPropertyOp7
 70
     1
102
RTVSPropertyOp8
 70
     1
102
RTVSPropertyOp9
 70
     1
102
RTVSPropertyOp10
 70
     1
102
RTVSPropertyOp11
 70
     1
102
RTVSPropertyOp12
 70
     1
102
RTVSPropertyOp13
 70
     1
102
RTVSPropertyOp14
 70
     1
102
RTVSPropertyOp15
 70
     1
102
RTVSPropertyOp16
 70
     1
102
RTVSPropertyOp17
 70
     1
102
RTVSPropertyOp18
 70
     1
102
RTVSPropertyOp19
 70
     1
102
RTVSPropertyOp20
 70
     1
102
RTVSPropertyOp21
 70
     1
102
RTVSPropertyOp22
 70
     1
102
RTVSPropertyOp23
 70
     1
102
RTVSPropertyOp24
 70
     1
102
RTVSPropertyOp25
 70
     1
102
RTVSPropertyOp26
 70
     1
102
RTVSPropertyOp27
 70
     1
  0
XRECORD
  5
85
102
{ACAD_REACTORS
330
84
102
}
330
84
100
AcDbXrecord
280
     1
102
RTVSPropertyOp0
 70
     1
102
RTVSPropertyOp1
 70
     1
102
RTVSPropertyOp2
 70
     1
102
RTVSPropertyOp3
 70
     1
102
RTVSPropertyOp4
 70
     1
102
RTVSPropertyOp5
 70
     1
102
RTVSPropertyOp6
 70
     1
102
RTVSPropertyOp7
 70
     1
102
RTVSPropertyOp8
 70
     1
102
RTVSPropertyOp9
 70
     1
102
RTVSPropertyOp10
 70
     1
102
RTVSPropertyOp11
 70
     1
102
RTVSPropertyOp12
 70
     1
102
RTVSPropertyOp13
 70
     1
102
RTVSPropertyOp14
 70
     1
102
RTVSPropertyOp15
 70
     1
102
RTVSPropertyOp16
 70
     1
102
RTVSPropertyOp17
 70
     1
102
RTVSPropertyOp18
 70
     1
102
RTVSPropertyOp19
 70
     1
102
RTVSPropertyOp20
 70
     1
102
RTVSPropertyOp21
 70
     1
102
RTVSPropertyOp22
 70
     1
102
RTVSPropertyOp23
 70
     1
102
RTVSPropertyOp24
 70
     1
102
RTVSPropertyOp25
 70
     1
102
RTVSPropertyOp26
 70
     1
102
RTVSPropertyOp27
 70
     1
  0
XRECORD
  5
79
102
{ACAD_REACTORS
330
78
102
}
330
78
100
AcDbXrecord
280
     1
102
RTVSPropertyOp0
 70
     1
102
RTVSPropertyOp1
 70
     1
102
RTVSPropertyOp2
 70
     1
102
RTVSPropertyOp3
 70
     1
102
RTVSPropertyOp4
 70
     1
102
RTVSPropertyOp5
 70
     1
102
RTVSPropertyOp6
 70
     1
102
RTVSPropertyOp7
 70
     1
102
RTVSPropertyOp8
 70
     1
102
RTVSPropertyOp9
 70
     1
102
RTVSPropertyOp10
 70
     1
102
RTVSPropertyOp11
 70
     1
102
RTVSPropertyOp12
 70
     1
102
RTVSPropertyOp13
 70
     1
102
RTVSPropertyOp14
 70
     1
102
RTVSPropertyOp15
 70
     1
102
RTVSPropertyOp16
 70
     1
102
RTVSPropertyOp17
 70
     1
102
RTVSPropertyOp18
 70
     1
102
RTVSPropertyOp19
 70
     1
102
RTVSPropertyOp20
 70
     1
102
RTVSPropertyOp21
 70
     1
102
RTVSPropertyOp22
 70
     1
102
RTVSPropertyOp23
 70
     1
102
RTVSPropertyOp24
 70
     1
102
RTVSPropertyOp25
 70
     1
102
RTVSPropertyOp26
 70
     1
102
RTVSPropertyOp27
 70
     1
  0
XRECORD
  5
7B
102
{ACAD_REACTORS
330
7A
102
}
330
7A
100
AcDbXrecord
280
     1
102
RTVSPropertyOp0
 70
     1
102
RTVSPropertyOp1
 70
     1
102
RTVSPropertyOp2
 70
     1
102
RTVSPropertyOp3
 70
     1
102
RTVSPropertyOp4
 70
     1
102
RTVSPropertyOp5
 70
     1
102
RTVSPropertyOp6
 70
     1
102
RTVSPropertyOp7
 70
     1
102
RTVSPropertyOp8
 70
     1
102
RTVSPropertyOp9
 70
     1
102
RTVSPropertyOp10
 70
     1
102
RTVSPropertyOp11
 70
     1
102
RTVSPropertyOp12
 70
     1
102
RTVSPropertyOp13
 70
     1
102
RTVSPropertyOp14
 70
     1
102
RTVSPropertyOp15
 70
     1
102
RTVSPropertyOp16
 70
     1
102
RTVSPropertyOp17
 70
     1
102
RTVSPropertyOp18
 70
     1
102
RTVSPropertyOp19
 70
     1
102
RTVSPropertyOp20
 70
     1
102
RTVSPropertyOp21
 70
     1
102
RTVSPropertyOp22
 70
     1
102
RTVSPropertyOp23
 70
     1
102
RTVSPropertyOp24
 70
     1
102
RTVSPropertyOp25
 70
     1
102
RTVSPropertyOp26
 70
     1
102
RTVSPropertyOp27
 70
     1
  0
XRECORD
  5
83
102
{ACAD_REACTORS
330
82
102
}
330
82
100
AcDbXrecord
280
     1
102
RTVSPropertyOp0
 70
     1
102
RTVSPropertyOp1
 70
     1
102
RTVSPropertyOp2
 70
     1
102
RTVSPropertyOp3
 70
     1
102
RTVSPropertyOp4
 70
     1
102
RTVSPropertyOp5
 70
     1
102
RTVSPropertyOp6
 70
     1
102
RTVSPropertyOp7
 70
     1
102
RTVSPropertyOp8
 70
     1
102
RTVSPropertyOp9
 70
     1
102
RTVSPropertyOp10
 70
     1
102
RTVSPropertyOp11
 70
     1
102
RTVSPropertyOp12
 70
     1
102
RTVSPropertyOp13
 70
     1
102
RTVSPropertyOp14
 70
     1
102
RTVSPropertyOp15
 70
     1
102
RTVSPropertyOp16
 70
     1
102
RTVSPropertyOp17
 70
     1
102
RTVSPropertyOp18
 70
     1
102
RTVSPropertyOp19
 70
     1
102
RTVSPropertyOp20
 70
     1
102
RTVSPropertyOp21
 70
     1
102
RTVSPropertyOp22
 70
     1
102
RTVSPropertyOp23
 70
     1
102
RTVSPropertyOp24
 70
     1
102
RTVSPropertyOp25
 70
     1
102
RTVSPropertyOp26
 70
     1
102
RTVSPropertyOp27
 70
     1
  0
XRECORD
  5
67
102
{ACAD_REACTORS
330
66
102
}
330
66
100
AcDbXrecord
280
     1
102
RTVSPropertyOp0
 70
     1
102
RTVSPropertyOp1
 70
     1
102
RTVSPropertyOp2
 70
     1
102
RTVSPropertyOp3
 70
     1
102
RTVSPropertyOp4
 70
     1
102
RTVSPropertyOp5
 70
     1
102
RTVSPropertyOp6
 70
     1
102
RTVSPropertyOp7
 70
     1
102
RTVSPropertyOp8
 70
     1
102
RTVSPropertyOp9
 70
     1
102
RTVSPropertyOp10
 70
     1
102
RTVSPropertyOp11
 70
     1
102
RTVSPropertyOp12
 70
     1
102
RTVSPropertyOp13
 70
     1
102
RTVSPropertyOp14
 70
     1
102
RTVSPropertyOp15
 70
     1
102
RTVSPropertyOp16
 70
     1
102
RTVSPropertyOp17
 70
     1
102
RTVSPropertyOp18
 70
     1
102
RTVSPropertyOp19
 70
     1
102
RTVSPropertyOp20
 70
     1
102
RTVSPropertyOp21
 70
     1
102
RTVSPropertyOp22
 70
     1
102
RTVSPropertyOp23
 70
     1
102
RTVSPropertyOp24
 70
     1
102
RTVSPropertyOp25
 70
     1
102
RTVSPropertyOp26
 70
     1
102
RTVSPropertyOp27
 70
     1
  0
XRECORD
  5
69
102
{ACAD_REACTORS
330
68
102
}
330
68
100
AcDbXrecord
280
     1
102
RTVSPropertyOp0
 70
     1
102
RTVSPropertyOp1
 70
     1
102
RTVSPropertyOp2
 70
     1
102
RTVSPropertyOp3
 70
     1
102
RTVSPropertyOp4
 70
     1
102
RTVSPropertyOp5
 70
     1
102
RTVSPropertyOp6
 70
     1
102
RTVSPropertyOp7
 70
     1
102
RTVSPropertyOp8
 70
     1
102
RTVSPropertyOp9
 70
     1
102
RTVSPropertyOp10
 70
     1
102
RTVSPropertyOp11
 70
     1
102
RTVSPropertyOp12
 70
     1
102
RTVSPropertyOp13
 70
     1
102
RTVSPropertyOp14
 70
     1
102
RTVSPropertyOp15
 70
     1
102
RTVSPropertyOp16
 70
     1
102
RTVSPropertyOp17
 70
     1
102
RTVSPropertyOp18
 70
     1
102
RTVSPropertyOp19
 70
     1
102
RTVSPropertyOp20
 70
     1
102
RTVSPropertyOp21
 70
     1
102
RTVSPropertyOp22
 70
     1
102
RTVSPropertyOp23
 70
     1
102
RTVSPropertyOp24
 70
     1
102
RTVSPropertyOp25
 70
     1
102
RTVSPropertyOp26
 70
     1
102
RTVSPropertyOp27
 70
     1
  0
XRECORD
  5
6B
102
{ACAD_REACTORS
330
6A
102
}
330
6A
100
AcDbXrecord
280
     1
102
RTVSPropertyOp0
 70
     1
102
RTVSPropertyOp1
 70
     1
102
RTVSPropertyOp2
 70
     1
102
RTVSPropertyOp3
 70
     1
102
RTVSPropertyOp4
 70
     1
102
RTVSPropertyOp5
 70
     1
102
RTVSPropertyOp6
 70
     1
102
RTVSPropertyOp7
 70
     1
102
RTVSPropertyOp8
 70
     1
102
RTVSPropertyOp9
 70
     1
102
RTVSPropertyOp10
 70
     1
102
RTVSPropertyOp11
 70
     1
102
RTVSPropertyOp12
 70
     1
102
RTVSPropertyOp13
 70
     1
102
RTVSPropertyOp14
 70
     1
102
RTVSPropertyOp15
 70
     1
102
RTVSPropertyOp16
 70
     1
102
RTVSPropertyOp17
 70
     1
102
RTVSPropertyOp18
 70
     1
102
RTVSPropertyOp19
 70
     1
102
RTVSPropertyOp20
 70
     1
102
RTVSPropertyOp21
 70
     1
102
RTVSPropertyOp22
 70
     1
102
RTVSPropertyOp23
 70
     1
102
RTVSPropertyOp24
 70
     1
102
RTVSPropertyOp25
 70
     1
102
RTVSPropertyOp26
 70
     1
102
RTVSPropertyOp27
 70
     1
  0
XRECORD
  5
6D
102
{ACAD_REACTORS
330
6C
102
}
330
6C
100
AcDbXrecord
280
     1
102
RTVSPropertyOp0
 70
     1
102
RTVSPropertyOp1
 70
     1
102
RTVSPropertyOp2
 70
     1
102
RTVSPropertyOp3
 70
     1
102
RTVSPropertyOp4
 70
     1
102
RTVSPropertyOp5
 70
     1
102
RTVSPropertyOp6
 70
     1
102
RTVSPropertyOp7
 70
     1
102
RTVSPropertyOp8
 70
     1
102
RTVSPropertyOp9
 70
     1
102
RTVSPropertyOp10
 70
     1
102
RTVSPropertyOp11
 70
     1
102
RTVSPropertyOp12
 70
     1
102
RTVSPropertyOp13
 70
     1
102
RTVSPropertyOp14
 70
     1
102
RTVSPropertyOp15
 70
     1
102
RTVSPropertyOp16
 70
     1
102
RTVSPropertyOp17
 70
     1
102
RTVSPropertyOp18
 70
     1
102
RTVSPropertyOp19
 70
     1
102
RTVSPropertyOp20
 70
     1
102
RTVSPropertyOp21
 70
     1
102
RTVSPropertyOp22
 70
     1
102
RTVSPropertyOp23
 70
     1
102
RTVSPropertyOp24
 70
     1
102
RTVSPropertyOp25
 70
     1
102
RTVSPropertyOp26
 70
     1
102
RTVSPropertyOp27
 70
     1
  0
XRECORD
  5
81
102
{ACAD_REACTORS
330
80
102
}
330
80
100
AcDbXrecord
280
     1
102
RTVSPropertyOp0
 70
     1
102
RTVSPropertyOp1
 70
     1
102
RTVSPropertyOp2
 70
     1
102
RTVSPropertyOp3
 70
     1
102
RTVSPropertyOp4
 70
     1
102
RTVSPropertyOp5
 70
     1
102
RTVSPropertyOp6
 70
     1
102
RTVSPropertyOp7
 70
     1
102
RTVSPropertyOp8
 70
     1
102
RTVSPropertyOp9
 70
     1
102
RTVSPropertyOp10
 70
     1
102
RTVSPropertyOp11
 70
     1
102
RTVSPropertyOp12
 70
     1
102
RTVSPropertyOp13
 70
     1
102
RTVSPropertyOp14
 70
     1
102
RTVSPropertyOp15
 70
     1
102
RTVSPropertyOp16
 70
     1
102
RTVSPropertyOp17
 70
     1
102
RTVSPropertyOp18
 70
     1
102
RTVSPropertyOp19
 70
     1
102
RTVSPropertyOp20
 70
     1
102
RTVSPropertyOp21
 70
     1
102
RTVSPropertyOp22
 70
     1
102
RTVSPropertyOp23
 70
     1
102
RTVSPropertyOp24
 70
     1
102
RTVSPropertyOp25
 70
     1
102
RTVSPropertyOp26
 70
     1
102
RTVSPropertyOp27
 70
     1
  0
XRECORD
  5
77
102
{ACAD_REACTORS
330
76
102
}
330
76
100
AcDbXrecord
280
     1
102
RTVSPropertyOp0
 70
     1
102
RTVSPropertyOp1
 70
     1
102
RTVSPropertyOp2
 70
     1
102
RTVSPropertyOp3
 70
     1
102
RTVSPropertyOp4
 70
     1
102
RTVSPropertyOp5
 70
     1
102
RTVSPropertyOp6
 70
     1
102
RTVSPropertyOp7
 70
     1
102
RTVSPropertyOp8
 70
     1
102
RTVSPropertyOp9
 70
     1
102
RTVSPropertyOp10
 70
     1
102
RTVSPropertyOp11
 70
     1
102
RTVSPropertyOp12
 70
     1
102
RTVSPropertyOp13
 70
     1
102
RTVSPropertyOp14
 70
     1
102
RTVSPropertyOp15
 70
     1
102
RTVSPropertyOp16
 70
     1
102
RTVSPropertyOp17
 70
     1
102
RTVSPropertyOp18
 70
     1
102
RTVSPropertyOp19
 70
     1
102
RTVSPropertyOp20
 70
     1
102
RTVSPropertyOp21
 70
     1
102
RTVSPropertyOp22
 70
     1
102
RTVSPropertyOp23
 70
     1
102
RTVSPropertyOp24
 70
     1
102
RTVSPropertyOp25
 70
     1
102
RTVSPropertyOp26
 70
     1
102
RTVSPropertyOp27
 70
     1
  0
XRECORD
  5
7F
102
{ACAD_REACTORS
330
7E
102
}
330
7E
100
AcDbXrecord
280
     1
102
RTVSPropertyOp0
 70
     1
102
RTVSPropertyOp1
 70
     1
102
RTVSPropertyOp2
 70
     1
102
RTVSPropertyOp3
 70
     1
102
RTVSPropertyOp4
 70
     1
102
RTVSPropertyOp5
 70
     1
102
RTVSPropertyOp6
 70
     1
102
RTVSPropertyOp7
 70
     1
102
RTVSPropertyOp8
 70
     1
102
RTVSPropertyOp9
 70
     1
102
RTVSPropertyOp10
 70
     1
102
RTVSPropertyOp11
 70
     1
102
RTVSPropertyOp12
 70
     1
102
RTVSPropertyOp13
 70
     1
102
RTVSPropertyOp14
 70
     1
102
RTVSPropertyOp15
 70
     1
102
RTVSPropertyOp16
 70
     1
102
RTVSPropertyOp17
 70
     1
102
RTVSPropertyOp18
 70
     1
102
RTVSPropertyOp19
 70
     1
102
RTVSPropertyOp20
 70
     1
102
RTVSPropertyOp21
 70
     1
102
RTVSPropertyOp22
 70
     1
102
RTVSPropertyOp23
 70
     1
102
RTVSPropertyOp24
 70
     1
102
RTVSPropertyOp25
 70
     1
102
RTVSPropertyOp26
 70
     1
102
RTVSPropertyOp27
 70
     1
  0
ENDSEC
  0
EOF
