  0
SECTION
  2
HEADER
  9
$ACADVER
  1
AC1009
  9
$INSBASE
 10
0.0
 20
0.0
 30
0.0
  9
$EXTMIN
 10
0.0
 20
-0.0000000000004547
 30
0.0
  9
$EXTMAX
 10
3606.7864950576509
 20
2229.1397203664928
 30
0.0
  9
$LIMMIN
 10
0.0
 20
0.0
  9
$LIMMAX
 10
420.0
 20
297.0
  9
$ORTHOMODE
 70
     0
  9
$REGENMODE
 70
     1
  9
$FILLMODE
 70
     1
  9
$QTEXTMODE
 70
     0
  9
$MIRRTEXT
 70
     0
  9
$DRAGMODE
 70
     2
  9
$LTSCALE
 40
1.0
  9
$OSMODE
 70
  3071
  9
$ATTMODE
 70
     1
  9
$TEXTSIZE
 40
2.5
  9
$TRACEWID
 40
1.0
  9
$TEXTSTYLE
  7
STANDARD
  9
$CLAYER
  8
0
  9
$CELTYPE
  6
BYLAYER
  9
$CECOLOR
 62
   256
  9
$DIMSCALE
 40
1.0
  9
$DIMASZ
 40
2.5
  9
$DIMEXO
 40
0.625
  9
$DIMDLI
 40
3.75
  9
$DIMRND
 40
0.0
  9
$DIMDLE
 40
0.0
  9
$DIMEXE
 40
1.25
  9
$DIMTP
 40
0.0
  9
$DIMTM
 40
0.0
  9
$DIMTXT
 40
25.0
  9
$DIMCEN
 40
2.5
  9
$DIMTSZ
 40
0.0
  9
$DIMTOL
 70
     0
  9
$DIMLIM
 70
     0
  9
$DIMTIH
 70
     0
  9
$DIMTOH
 70
     0
  9
$DIMSE1
 70
     0
  9
$DIMSE2
 70
     0
  9
$DIMTAD
 70
     1
  9
$DIMZIN
 70
     8
  9
$DIMBLK
  1

  9
$DIMASO
 70
     1
  9
$DIMSHO
 70
     1
  9
$DIMPOST
  1

  9
$DIMAPOST
  1

  9
$DIMALT
 70
     0
  9
$DIMALTD
 70
     3
  9
$DIMALTF
 40
0.03937007874016
  9
$DIMLFAC
 40
1.0
  9
$DIMTOFL
 70
     1
  9
$DIMTVP
 40
0.0
  9
$DIMTIX
 70
     0
  9
$DIMSOXD
 70
     0
  9
$DIMSAH
 70
     0
  9
$DIMBLK1
  1

  9
$DIMBLK2
  1

  9
$DIMSTYLE
  2
ISO-25
  9
$DIMCLRD
 70
     1
  9
$DIMCLRE
 70
     1
  9
$DIMCLRT
 70
     1
  9
$DIMTFAC
 40
1.0
  9
$DIMGAP
 40
5.0
  9
$LUNITS
 70
     2
  9
$LUPREC
 70
     4
  9
$SKETCHINC
 40
1.0
  9
$FILLETRAD
 40
0.0
  9
$AUNITS
 70
     0
  9
$AUPREC
 70
     4
  9
$MENU
  1
.
  9
$ELEVATION
 40
0.0
  9
$PELEVATION
 40
0.0
  9
$THICKNESS
 40
0.0
  9
$LIMCHECK
 70
     0
  9
$BLIPMODE
 70
     0
  9
$CHAMFERA
 40
0.0
  9
$CHAMFERB
 40
0.0
  9
$SKPOLY
 70
     0
  9
$TDCREATE
 40
2455998.0374287381
  9
$TDUPDATE
 40
2455998.0603454048
  9
$TDINDWG
 40
0.0229197454
  9
$TDUSRTIMER
 40
0.0229182986
  9
$USRTIMER
 70
     1
  9
$ANGBASE
 50
0.0
  9
$ANGDIR
 70
     0
  9
$PDMODE
 70
    32
  9
$PDSIZE
 40
0.0
  9
$PLINEWID
 40
0.0
  9
$COORDS
 70
     0
  9
$SPLFRAME
 70
     0
  9
$SPLINETYPE
 70
     6
  9
$SPLINESEGS
 70
 32767
  9
$ATTDIA
 70
     0
  9
$ATTREQ
 70
     1
  9
$HANDLING
 70
     1
  9
$HANDSEED
  5
225
  9
$SURFTAB1
 70
     6
  9
$SURFTAB2
 70
     6
  9
$SURFTYPE
 70
     6
  9
$SURFU
 70
     6
  9
$SURFV
 70
     6
  9
$UCSNAME
  2

  9
$UCSORG
 10
0.0
 20
0.0
 30
0.0
  9
$UCSXDIR
 10
1.0
 20
0.0
 30
0.0
  9
$UCSYDIR
 10
0.0
 20
1.0
 30
0.0
  9
$PUCSNAME
  2

  9
$PUCSORG
 10
0.0
 20
0.0
 30
0.0
  9
$PUCSXDIR
 10
1.0
 20
0.0
 30
0.0
  9
$PUCSYDIR
 10
0.0
 20
1.0
 30
0.0
  9
$USERI1
 70
     0
  9
$USERI2
 70
     0
  9
$USERI3
 70
     0
  9
$USERI4
 70
     0
  9
$USERI5
 70
     0
  9
$USERR1
 40
0.0
  9
$USERR2
 40
0.0
  9
$USERR3
 40
0.0
  9
$USERR4
 40
0.0
  9
$USERR5
 40
0.0
  9
$WORLDVIEW
 70
     1
  9
$SHADEDGE
 70
     3
  9
$SHADEDIF
 70
    70
  9
$TILEMODE
 70
     1
  9
$MAXACTVP
 70
    64
  9
$PLIMCHECK
 70
     0
  9
$PEXTMIN
 10
1.0000000000000000E+020
 20
1.0000000000000000E+020
 30
1.0000000000000000E+020
  9
$PEXTMAX
 10
-1.0000000000000000E+020
 20
-1.0000000000000000E+020
 30
-1.0000000000000000E+020
  9
$PLIMMIN
 10
0.0
 20
0.0
  9
$PLIMMAX
 10
420.0
 20
297.0
  9
$UNITMODE
 70
     0
  9
$VISRETAIN
 70
     1
  9
$PLINEGEN
 70
     0
  9
$PSLTSCALE
 70
     1
  0
ENDSEC
  0
SECTION
  2
TABLES
  0
TABLE
  2
VPORT
 70
     1
  0
VPORT
  2
*ACTIVE
 70
     0
 10
0.0
 20
0.0
 11
1.0
 21
1.0
 12
1543.41204810932
 22
257.15865516499662
 13
0.0
 23
0.0
 14
10.0
 24
10.0
 15
10.0
 25
10.0
 16
0.0
 26
0.0
 36
1.0
 17
0.0
 27
0.0
 37
0.0
 40
2515.1612376463759
 41
1.669126691266912
 42
50.0
 43
0.0
 44
0.0
 50
0.0
 51
0.0
 71
     0
 72
 20000
 73
     1
 74
     2
 75
     0
 76
     0
 77
     0
 78
     0
  0
ENDTAB
  0
TABLE
  2
LTYPE
 70
     2
  0
LTYPE
  2
CONTINUOUS
 70
     0
  3
Solid line
 72
    65
 73
     0
 40
0.0
  0
ENDTAB
  0
TABLE
  2
LAYER
 70
     2
  0
LAYER
  2
0
 70
     0
 62
     7
  6
CONTINUOUS
  0
LAYER
  2
DEFPOINTS
 70
     0
 62
     7
  6
CONTINUOUS
  0
ENDTAB
  0
TABLE
  2
STYLE
 70
     1
  0
STYLE
  2
STANDARD
 70
     0
 40
0.0
 41
1.0
 50
0.0
 71
     0
 42
2.5
  3
txt
  4

  0
ENDTAB
  0
TABLE
  2
VIEW
 70
     0
  0
ENDTAB
  0
TABLE
  2
UCS
 70
     0
  0
ENDTAB
  0
TABLE
  2
APPID
 70
     3
  0
APPID
  2
ACAD
 70
     0
  0
APPID
  2
ACAD_EXEMPT_FROM_CAD_STANDARDS
 70
     0
  0
APPID
  2
ACAD_PSEXT
 70
     0
  0
ENDTAB
  0
TABLE
  2
DIMSTYLE
 70
     2
  0
DIMSTYLE
  2
ISO-25
 70
     0
  3

  4

  5

  6

  7

 40
1.0
 41
2.5
 42
0.625
 43
3.75
 44
1.25
 45
0.0
 46
0.0
 47
0.0
 48
0.0
140
2.5
141
2.5
142
0.0
143
0.03937007874016
144
1.0
145
0.0
146
1.0
147
0.625
 71
     0
 72
     0
 73
     0
 74
     0
 75
     0
 76
     0
 77
     1
 78
     8
170
     0
171
     3
172
     1
173
     0
174
     0
175
     0
176
     0
177
     0
178
     0
  0
ENDTAB
  0
ENDSEC
  0
SECTION
  2
BLOCKS
  0
BLOCK
  8
0
  2
$MODEL_SPACE
 70
     0
 10
0.0
 20
0.0
 30
0.0
  3
$MODEL_SPACE
  1

  0
ENDBLK
  5
39
  8
0
  0
BLOCK
 67
     1
  8
0
  2
$PAPER_SPACE
 70
     0
 10
0.0
 20
0.0
 30
0.0
  3
$PAPER_SPACE
  1

  0
ENDBLK
  5
35
 67
     1
  8
0
  0
BLOCK
  8
0
  2
*D1
 70
     1
 10
0.0
 20
0.0
 30
0.0
  3
*D1
  1

  0
LINE
  5
6E
  8
0
 62
     1
 10
2105.4423418978699
 20
2116.3500607191818
 30
0.0
 11
1484.82113820524
 21
2116.3500607191818
 31
0.0
  0
LINE
  5
6F
  8
0
 62
     1
 10
2105.4423418978699
 20
236.1011491409736
 30
0.0
 11
1484.8211382052391
 21
236.10114914097369
 31
0.0
  0
LINE
  5
70
  8
0
 62
     1
 10
1486.07113820524
 20
2113.8500607191818
 30
0.0
 11
1486.0711382052391
 21
238.60114914097369
 31
0.0
  0
SOLID
  5
71
  8
0
 62
     1
 10
1485.654471538573
 20
2113.8500607191818
 30
0.0
 11
1486.487804871907
 21
2113.8500607191818
 31
0.0
 12
1486.07113820524
 22
2116.3500607191818
 32
0.0
 13
1486.07113820524
 23
2116.3500607191818
 33
0.0
  0
SOLID
  5
72
  8
0
 62
     1
 10
1485.654471538573
 20
238.60114914097369
 30
0.0
 11
1486.4878048719061
 21
238.60114914097369
 31
0.0
 12
1486.0711382052391
 22
236.10114914097369
 32
0.0
 13
1486.0711382052391
 23
236.10114914097369
 33
0.0
  0
INSERT
  5
73
  8
0
  2
*U4
 10
0.0
 20
0.0
 30
0.0
  0
POINT
  5
74
  8
DEFPOINTS
 62
     0
 10
2106.067341897869
 20
2116.3500607191818
 30
0.0
  0
POINT
  5
75
  8
DEFPOINTS
 62
     0
 10
2106.067341897869
 20
236.1011491409736
 30
0.0
  0
POINT
  5
76
  8
DEFPOINTS
 62
     0
 10
1486.0711382052391
 20
236.10114914097369
 30
0.0
  0
ENDBLK
  5
6D
  8
0
  0
BLOCK
  8
0
  2
*D3
 70
     1
 10
0.0
 20
0.0
 30
0.0
  3
*D3
  1

  0
LINE
  5
A0
  8
0
 62
     1
 10
1955.037305154372
 20
1191.0536018627461
 30
0.0
 11
1955.037305154372
 21
1217.8048276494951
 31
0.0
  0
LINE
  5
A1
  8
0
 62
     1
 10
2206.1721031281631
 20
1191.0536018627461
 30
0.0
 11
2206.1721031281631
 21
1217.8048276494951
 31
0.0
  0
LINE
  5
A2
  8
0
 62
     1
 10
1957.537305154372
 20
1216.5548276494951
 30
0.0
 11
2203.6721031281631
 21
1216.5548276494951
 31
0.0
  0
SOLID
  5
A3
  8
0
 62
     1
 10
1957.537305154372
 20
1216.9714943161621
 30
0.0
 11
1957.537305154372
 21
1216.138160982829
 31
0.0
 12
1955.037305154372
 22
1216.5548276494951
 32
0.0
 13
1955.037305154372
 23
1216.5548276494951
 33
0.0
  0
SOLID
  5
A4
  8
0
 62
     1
 10
2203.6721031281631
 20
1216.9714943161621
 30
0.0
 11
2203.6721031281631
 21
1216.138160982829
 31
0.0
 12
2206.1721031281631
 22
1216.5548276494951
 32
0.0
 13
2206.1721031281631
 23
1216.5548276494951
 33
0.0
  0
INSERT
  5
A5
  8
0
  2
*U5
 10
0.0
 20
0.0
 30
0.0
  0
POINT
  5
A6
  8
DEFPOINTS
 62
     0
 10
1955.037305154372
 20
1190.4286018627461
 30
0.0
  0
POINT
  5
A7
  8
DEFPOINTS
 62
     0
 10
2206.1721031281631
 20
1190.4286018627461
 30
0.0
  0
POINT
  5
A8
  8
DEFPOINTS
 62
     0
 10
2206.1721031281631
 20
1216.5548276494951
 30
0.0
  0
ENDBLK
  5
9E
  8
0
  0
BLOCK
  8
0
  2
*U4
 70
     1
 10
0.0
 20
0.0
 30
0.0
  3
*U4
  1

  0
TEXT
  5
21B
  8
0
 62
     1
 10
1476.904471538573
 20
1080.3922715967451
 30
0.0
 40
25.0
  1
1880,2489
 50
90.0
  0
ENDBLK
  5
21D
  8
0
  0
BLOCK
  8
0
  2
*U5
 70
     1
 10
0.0
 20
0.0
 30
0.0
  3
*U5
  1

  0
TEXT
  5
222
  8
0
 62
     1
 10
1999.3547041412669
 20
1225.7214943161621
 30
0.0
 40
25.0
  1
251,1348
  0
ENDBLK
  5
224
  8
0
  0
ENDSEC
  0
SECTION
  2
ENTITIES
  0
LINE
  5
57
  8
0
 10
1900.0
 20
799.99999999999955
 30
0.0
 11
0.0
 21
800.0
 31
0.0
  0
LINE
  5
58
  8
0
 10
0.0
 20
800.0
 30
0.0
 11
0.0
 21
0.0
 31
0.0
  0
LINE
  5
59
  8
0
 10
1900.0
 20
-0.0000000000004547
 30
0.0
 11
0.0
 21
0.0
 31
0.0
  0
LINE
  5
5C
  8
0
 10
1900.0
 20
799.99999999999955
 30
0.0
 11
1900.0
 21
-0.0000000000004547
 31
0.0
  0
LINE
  5
7B
  8
0
 10
1780.0
 20
399.9999999999996
 30
0.0
 11
1481.9427086961441
 21
399.9999999999996
 31
0.0
  0
LINE
  5
7D
  8
0
 10
1780.0
 20
340.0
 30
0.0
 11
1509.431001406778
 21
339.99999999999949
 31
0.0
  0
LINE
  5
87
  8
0
 10
1780.0
 20
679.99999999999955
 30
0.0
 11
1780.0
 21
399.9999999999996
 31
0.0
  0
LINE
  5
88
  8
0
 10
1780.0
 20
679.99999999999955
 30
0.0
 11
1168.547581398172
 21
679.99999999999977
 31
0.0
  0
LINE
  5
89
  8
0
 10
120.0
 20
679.99999999999977
 30
0.0
 11
120.0
 21
400.0000000000004
 31
0.0
  0
LINE
  5
8A
  8
0
 10
1780.0
 20
119.9999999999995
 30
0.0
 11
1230.0
 21
119.9999999999995
 31
0.0
  0
ARC
  5
8B
  8
0
 10
950.0
 20
120.0
 30
0.0
 40
601.13479797379114
 50
0.0
 51
21.467566676232341
  0
ARC
  5
8C
  8
0
 10
950.0
 20
120.0
 30
0.0
 40
531.13479797379114
 50
0.0
 51
180.0
  0
ARC
  5
8D
  8
0
 10
950.0
 20
120.0
 30
0.0
 40
280.0
 50
0.0
 51
180.0
  0
ARC
  5
8E
  8
0
 10
950.0
 20
120.0
 30
0.0
 40
220.0
 50
0.0
 51
180.0
  0
LINE
  5
8F
  8
0
 10
390.56899859322169
 20
340.0
 30
0.0
 11
120.0
 21
340.00000000000051
 31
0.0
  0
LINE
  5
90
  8
0
 10
418.05729130385629
 20
400.0
 30
0.0
 11
120.0
 21
400.0000000000008
 31
0.0
  0
LINE
  5
91
  8
0
 10
731.45241860182784
 20
679.99999999999977
 30
0.0
 11
120.0
 21
680.0
 31
0.0
  0
ARC
  5
B1
  8
0
 10
950.0
 20
120.0
 30
0.0
 40
322.06739898689563
 50
0.0
 51
180.0
  0
ARC
  5
B2
  8
0
 10
950.0
 20
120.0
 30
0.0
 40
363.81739898689563
 50
5.80645161291541
 51
17.419354838705939
  0
ARC
  5
B3
  8
0
 10
950.0
 20
120.0
 30
0.0
 40
405.56739898689551
 50
5.80645161291541
 51
11.61290322580339
  0
ARC
  5
B4
  8
0
 10
950.0
 20
120.0
 30
0.0
 40
447.31739898689551
 50
0.0
 51
11.61290322580339
  0
ARC
  5
B5
  8
0
 10
950.0
 20
120.0
 30
0.0
 40
489.06739898689563
 50
0.0
 51
180.0
  0
LINE
  5
B6
  8
0
 10
950.0
 20
120.0
 30
0.0
 11
1170.0
 21
119.9999999999995
 31
0.0
  0
LINE
  5
1BE
  8
0
 10
1353.486563819903
 20
161.0305732083111
 30
0.0
 11
1311.9507695682919
 21
156.80679576533609
 31
0.0
  0
LINE
  5
1BF
  8
0
 10
1347.265410503561
 20
201.64011721226871
 30
0.0
 11
1388.1607855508521
 21
210.0443304259702
 31
0.0
  0
LINE
  5
1C0
  8
0
 10
1376.80309044416
 20
253.91033352103619
 30
0.0
 11
1297.1324625347561
 21
228.91351275276071
 31
0.0
  0
LINE
  5
1C1
  8
0
 10
1284.3328408023619
 20
263.47352148258011
 30
0.0
 11
1322.6993294375061
 21
279.93787843356131
 31
0.0
  0
LINE
  5
1C2
  8
0
 10
1341.110454146788
 20
337.08401160263838
 30
0.0
 11
1304.606482922751
 21
316.82265466696617
 31
0.0
  0
LINE
  5
1C3
  8
0
 10
1248.6080203635649
 20
327.83731613967302
 30
0.0
 11
1317.141767704373
 21
375.53821210008851
 31
0.0
  0
LINE
  5
1C4
  8
0
 10
1257.7275582806949
 20
384.17544358928723
 30
0.0
 11
1226.049406658271
 21
356.98064243563431
 31
0.0
  0
LINE
  5
1C5
  8
0
 10
1229.422521357541
 20
413.95232552097599
 30
0.0
 11
1258.1868902289509
 21
444.212424387792
 31
0.0
  0
LINE
  5
1C6
  8
0
 10
1223.805656017538
 20
473.72774582891628
 30
0.0
 11
1172.694806474809
 21
407.6979717946183
 31
0.0
  0
LINE
  5
1C7
  8
0
 10
1142.4463103948331
 20
428.75154642690489
 30
0.0
 11
1164.530557825984
 21
464.18244417731103
 31
0.0
  0
LINE
  5
1C8
  8
0
 10
1146.995966403801
 20
521.60359143941105
 30
0.0
 11
1128.6095105762711
 21
484.12025191233261
 31
0.0
  0
LINE
  5
1C9
  8
0
 10
1076.355693744488
 20
461.17054161216578
 30
0.0
 11
1105.3556823570309
 21
539.47284464644679
 31
0.0
  0
LINE
  5
1CA
  8
0
 10
1051.656495557648
 20
512.62051911729395
 30
0.0
 11
1041.191752335847
 21
472.20329940462989
 31
0.0
  0
LINE
  5
1CB
  8
0
 10
1011.414169856897
 20
520.89052727868693
 30
0.0
 11
1017.736279567714
 21
562.15907981938562
 31
0.0
  0
LINE
  5
1CC
  8
0
 10
972.65625446578133
 20
566.74327031303233
 30
0.0
 11
968.42704886774834
 21
483.35044196424951
 31
0.0
  0
LINE
  5
1CD
  8
0
 10
931.57295113225155
 20
483.35044196424951
 30
0.0
 11
929.45834833323534
 21
525.04685613864103
 31
0.0
  0
LINE
  5
1CE
  8
0
 10
882.26372043228639
 20
562.15907981938585
 30
0.0
 11
888.58583014310261
 21
520.89052727868727
 31
0.0
  0
LINE
  5
1CF
  8
0
 10
858.80824766415355
 20
472.20329940463029
 30
0.0
 11
837.87876122055059
 21
553.03773882995847
 31
0.0
  0
LINE
  5
1D0
  8
0
 10
809.14431194924055
 20
500.32169312930722
 30
0.0
 11
823.64430625551165
 21
461.17054161216629
 31
0.0
  0
LINE
  5
1D1
  8
0
 10
771.39048942372938
 20
484.120251912333
 30
0.0
 11
753.00403359619838
 21
521.60359143941139
 31
0.0
  0
LINE
  5
1D2
  8
0
 10
713.38519474286613
 20
499.61334192771761
 30
0.0
 11
757.55368960516762
 21
428.7515464269058
 31
0.0
  0
LINE
  5
1D3
  8
0
 10
727.30519352519138
 20
407.69797179461909
 30
0.0
 11
701.74976875382663
 21
440.7128588117684
 31
0.0
  0
LINE
  5
1D4
  8
0
 10
641.8131097710492
 20
444.2124243877924
 30
0.0
 11
670.57747864245903
 21
413.9523255209769
 31
0.0
  0
LINE
  5
1D5
  8
0
 10
673.95059334172936
 20
356.98064243563613
 30
0.0
 11
610.5942900968812
 21
411.3702447429414
 31
0.0
  0
LINE
  5
1D6
  8
0
 10
617.1251059660317
 20
351.68776411988171
 30
0.0
 11
651.39197963643574
 21
327.8373161396749
 31
0.0
  0
LINE
  5
1D7
  8
0
 10
595.39351707724825
 20
316.82265466696663
 30
0.0
 11
558.88954585321187
 21
337.08401160263878
 31
0.0
  0
LINE
  5
1D8
  8
0
 10
538.93418192734862
 20
296.40223538454262
 30
0.0
 11
615.66715919763783
 21
263.47352148258051
 31
0.0
  0
LINE
  5
1D9
  8
0
 10
602.86753746524289
 20
228.91351275276071
 30
0.0
 11
563.03222351054126
 21
241.4119231368982
 31
0.0
  0
LINE
  5
1DA
  8
0
 10
511.83921444914722
 20
210.0443304259702
 30
0.0
 11
552.73458949643873
 21
201.64011721226689
 31
0.0
  0
LINE
  5
1DB
  8
0
 10
588.04923043170766
 20
156.80679576533061
 30
0.0
 11
504.97764192848462
 21
165.2543506512861
 31
0.0
  0
ARC
  5
1DC
  8
0
 10
950.0
 20
120.0
 30
0.0
 40
405.56739898689551
 50
23.225806451606761
 51
29.032258064520729
  0
ARC
  5
1DD
  8
0
 10
950.0
 20
120.0
 30
0.0
 40
447.31739898689551
 50
17.419354838705939
 51
29.032258064520729
  0
ARC
  5
1DE
  8
0
 10
950.0
 20
120.0
 30
0.0
 40
363.81739898689563
 50
23.225806451606761
 51
34.838709677419359
  0
ARC
  5
1DF
  8
0
 10
950.0
 20
120.0
 30
0.0
 40
405.56739898689551
 50
40.645161290325063
 51
46.451612903221452
  0
ARC
  5
1E0
  8
0
 10
950.0
 20
120.0
 30
0.0
 40
447.31739898689551
 50
34.838709677419359
 51
46.451612903221452
  0
ARC
  5
1E1
  8
0
 10
950.0
 20
120.0
 30
0.0
 40
363.81739898689563
 50
40.645161290325063
 51
52.258064516120967
  0
ARC
  5
1E2
  8
0
 10
950.0
 20
120.0
 30
0.0
 40
405.56739898689551
 50
58.064516129031489
 51
63.870967741929022
  0
ARC
  5
1E3
  8
0
 10
950.0
 20
120.0
 30
0.0
 40
447.31739898689551
 50
52.258064516120967
 51
63.870967741929022
  0
ARC
  5
1E4
  8
0
 10
950.0
 20
120.0
 30
0.0
 40
363.81739898689563
 50
58.064516129031489
 51
69.677419354842712
  0
ARC
  5
1E5
  8
0
 10
950.0
 20
120.0
 30
0.0
 40
405.56739898689551
 50
75.483870967739634
 51
81.290322580648095
  0
ARC
  5
1E6
  8
0
 10
950.0
 20
120.0
 30
0.0
 40
447.31739898689551
 50
69.677419354842712
 51
81.290322580648095
  0
ARC
  5
1E7
  8
0
 10
950.0
 20
120.0
 30
0.0
 40
363.81739898689563
 50
75.483870967739634
 51
87.096774193554054
  0
ARC
  5
1E8
  8
0
 10
950.0
 20
120.0
 30
0.0
 40
405.56739898689551
 50
92.903225806445931
 51
98.709677419351934
  0
ARC
  5
1E9
  8
0
 10
950.0
 20
120.0
 30
0.0
 40
447.31739898689551
 50
87.096774193554054
 51
98.709677419351934
  0
ARC
  5
1EA
  8
0
 10
950.0
 20
120.0
 30
0.0
 40
363.81739898689563
 50
92.903225806445931
 51
104.5161290322603
  0
ARC
  5
1EB
  8
0
 10
950.0
 20
120.0
 30
0.0
 40
405.56739898689551
 50
110.3225806451573
 51
116.12903225807089
  0
ARC
  5
1EC
  8
0
 10
950.0
 20
120.0
 30
0.0
 40
447.31739898689551
 50
104.5161290322603
 51
116.12903225807089
  0
ARC
  5
1ED
  8
0
 10
950.0
 20
120.0
 30
0.0
 40
363.81739898689563
 50
110.3225806451573
 51
121.9354838709685
  0
ARC
  5
1EE
  8
0
 10
950.0
 20
120.0
 30
0.0
 40
405.56739898689551
 50
127.741935483879
 51
133.5483870967785
  0
ARC
  5
1EF
  8
0
 10
950.0
 20
120.0
 30
0.0
 40
447.31739898689551
 50
121.9354838709685
 51
133.5483870967785
  0
ARC
  5
1F0
  8
0
 10
950.0
 20
120.0
 30
0.0
 40
363.81739898689563
 50
127.741935483879
 51
139.35483870967491
  0
ARC
  5
1F1
  8
0
 10
950.0
 20
120.0
 30
0.0
 40
405.56739898689551
 50
145.16129032258061
 51
150.96774193547921
  0
ARC
  5
1F2
  8
0
 10
950.0
 20
120.0
 30
0.0
 40
447.31739898689551
 50
139.35483870967491
 51
150.96774193547921
  0
ARC
  5
1F3
  8
0
 10
950.0
 20
120.0
 30
0.0
 40
363.81739898689563
 50
145.16129032258061
 51
156.77419354839321
  0
ARC
  5
1F4
  8
0
 10
950.0
 20
120.0
 30
0.0
 40
405.56739898689551
 50
162.580645161294
 51
168.38709677419661
  0
ARC
  5
1F5
  8
0
 10
950.0
 20
120.0
 30
0.0
 40
447.31739898689551
 50
156.77419354839321
 51
168.38709677419661
  0
ARC
  5
1F6
  8
0
 10
950.0
 20
120.0
 30
0.0
 40
363.81739898689563
 50
162.580645161294
 51
174.1935483870846
  0
ARC
  5
1F9
  8
0
 10
950.0
 20
120.0
 30
0.0
 40
447.31739898689551
 50
174.1935483870846
 51
180.0
  0
LINE
  5
1FA
  8
0
 10
1780.0
 20
339.99999999999949
 30
0.0
 11
1780.0
 21
119.9999999999995
 31
0.0
  0
ARC
  5
1FB
  8
0
 10
950.0
 20
120.0
 30
0.0
 40
601.13479797379114
 50
27.761083850797799
 51
152.2389161492022
  0
LINE
  5
1FC
  8
0
 10
1230.0
 20
119.9999999999995
 30
0.0
 11
1481.1347979737909
 21
119.9999999999995
 31
0.0
  0
LINE
  5
1FD
  8
0
 10
1170.0
 20
119.9999999999995
 30
0.0
 11
730.0
 21
120.0
 31
0.0
  0
LINE
  5
1FE
  8
0
 10
670.0
 20
120.0
 30
0.0
 11
418.86520202620881
 21
120.0
 31
0.0
  0
LINE
  5
1FF
  8
0
 10
348.86520202620881
 20
120.0
 30
0.0
 11
120.0
 21
120.0
 31
0.0
  0
LINE
  5
200
  8
0
 10
120.0
 20
340.0
 30
0.0
 11
120.0
 21
120.0
 31
0.0
  0
ARC
  5
201
  8
0
 10
950.0
 20
120.0
 30
0.0
 40
601.13479797379114
 50
158.53243332376761
 51
180.0
  0
ENDSEC
  0
EOF
